  0
SECTION
  2
HEADER
  9
$ACADVER
  1
AC1027
  9
$ACADMAINTVER
 70
     8
  9
$DWGCODEPAGE
  3
ANSI_1252
  9
$REQUIREDVERSIONS
160
                 0
  9
$INSBASE
 10
0.0
 20
0.0
 30
0.0
  9
$EXTMIN
 10
-59.696437
 20
-56.586697
 30
0.0
  9
$EXTMAX
 10
966.588533
 20
606.550696
 30
0.0
  9
$LIMMIN
 10
0.0
 20
0.0
  9
$LIMMAX
 10
420.0
 20
594.0
  9
$ORTHOMODE
 70
     1
  9
$REGENMODE
 70
     1
  9
$FILLMODE
 70
     1
  9
$QTEXTMODE
 70
     0
  9
$MIRRTEXT
 70
     1
  9
$LTSCALE
 40
2.0
  9
$ATTMODE
 70
     1
  9
$TEXTSIZE
 40
5.6
  9
$TRACEWID
 40
1.0
  9
$TEXTSTYLE
  7
STANDARD
  9
$CLAYER
  8
0
  9
$CELTYPE
  6
ByLayer
  9
$CECOLOR
 62
   256
  9
$CELTSCALE
 40
1.0
  9
$DISPSILH
 70
     0
  9
$DIMSCALE
 40
1.0
  9
$DIMASZ
 40
6.4
  9
$DIMEXO
 40
0.2
  9
$DIMDLI
 40
3.75
  9
$DIMRND
 40
0.0
  9
$DIMDLE
 40
0.0
  9
$DIMEXE
 40
2.0
  9
$DIMTP
 40
0.0
  9
$DIMTM
 40
0.0
  9
$DIMTXT
 40
6.4
  9
$DIMCEN
 40
2.5
  9
$DIMTSZ
 40
0.0
  9
$DIMTOL
 70
     0
  9
$DIMLIM
 70
     0
  9
$DIMTIH
 70
     1
  9
$DIMTOH
 70
     1
  9
$DIMSE1
 70
     0
  9
$DIMSE2
 70
     0
  9
$DIMTAD
 70
     1
  9
$DIMZIN
 70
     0
  9
$DIMBLK
  1

  9
$DIMASO
 70
     1
  9
$DIMSHO
 70
     1
  9
$DIMPOST
  1

  9
$DIMAPOST
  1

  9
$DIMALT
 70
     0
  9
$DIMALTD
 70
     3
  9
$DIMALTF
 40
0.03937
  9
$DIMLFAC
 40
1.0
  9
$DIMTOFL
 70
     1
  9
$DIMTVP
 40
0.0
  9
$DIMTIX
 70
     0
  9
$DIMSOXD
 70
     0
  9
$DIMSAH
 70
     0
  9
$DIMBLK1
  1

  9
$DIMBLK2
  1

  9
$DIMSTYLE
  2
ISO-25
  9
$DIMCLRD
 70
     0
  9
$DIMCLRE
 70
     0
  9
$DIMCLRT
 70
     0
  9
$DIMTFAC
 40
1.0
  9
$DIMGAP
 40
4.0
  9
$DIMJUST
 70
     0
  9
$DIMSD1
 70
     0
  9
$DIMSD2
 70
     0
  9
$DIMTOLJ
 70
     1
  9
$DIMTZIN
 70
     0
  9
$DIMALTZ
 70
     0
  9
$DIMALTTZ
 70
     0
  9
$DIMUPT
 70
     0
  9
$DIMDEC
 70
     2
  9
$DIMTDEC
 70
     2
  9
$DIMALTU
 70
     2
  9
$DIMALTTD
 70
     2
  9
$DIMTXSTY
  7
STANDARD
  9
$DIMAUNIT
 70
     0
  9
$DIMADEC
 70
     0
  9
$DIMALTRND
 40
0.0
  9
$DIMAZIN
 70
     0
  9
$DIMDSEP
 70
    46
  9
$DIMATFIT
 70
     3
  9
$DIMFRAC
 70
     0
  9
$DIMLDRBLK
  1

  9
$DIMLUNIT
 70
     2
  9
$DIMLWD
 70
    -2
  9
$DIMLWE
 70
    -2
  9
$DIMTMOVE
 70
     2
  9
$DIMFXL
 40
1.0
  9
$DIMFXLON
 70
     0
  9
$DIMJOGANG
 40
0.785398
  9
$DIMTFILL
 70
     0
  9
$DIMTFILLCLR
 70
     0
  9
$DIMARCSYM
 70
     0
  9
$DIMLTYPE
  6

  9
$DIMLTEX1
  6

  9
$DIMLTEX2
  6

  9
$DIMTXTDIRECTION
 70
     0
  9
$LUNITS
 70
     2
  9
$LUPREC
 70
     2
  9
$SKETCHINC
 40
1.0
  9
$FILLETRAD
 40
10.0
  9
$AUNITS
 70
     0
  9
$AUPREC
 70
     2
  9
$MENU
  1
.
  9
$ELEVATION
 40
0.0
  9
$PELEVATION
 40
0.0
  9
$THICKNESS
 40
0.0
  9
$LIMCHECK
 70
     0
  9
$CHAMFERA
 40
0.0
  9
$CHAMFERB
 40
0.0
  9
$CHAMFERC
 40
0.0
  9
$CHAMFERD
 40
0.0
  9
$SKPOLY
 70
     0
  9
$TDCREATE
 40
2457848.659337164
  9
$TDUCREATE
 40
2457848.576003831
  9
$TDUPDATE
 40
2460479.46539228
  9
$TDUUPDATE
 40
2460479.382058947
  9
$TDINDWG
 40
0.0220523032
  9
$TDUSRTIMER
 40
0.0013445023
  9
$USRTIMER
 70
     1
  9
$ANGBASE
 50
0.0
  9
$ANGDIR
 70
     0
  9
$PDMODE
 70
     0
  9
$PDSIZE
 40
-1.0
  9
$PLINEWID
 40
0.0
  9
$SPLFRAME
 70
     0
  9
$SPLINETYPE
 70
     6
  9
$SPLINESEGS
 70
     8
  9
$HANDSEED
  5
628A
  9
$SURFTAB1
 70
     6
  9
$SURFTAB2
 70
     6
  9
$SURFTYPE
 70
     6
  9
$SURFU
 70
     6
  9
$SURFV
 70
     6
  9
$UCSBASE
  2

  9
$UCSNAME
  2

  9
$UCSORG
 10
0.0
 20
0.0
 30
0.0
  9
$UCSXDIR
 10
1.0
 20
0.0
 30
0.0
  9
$UCSYDIR
 10
0.0
 20
1.0
 30
0.0
  9
$UCSORTHOREF
  2

  9
$UCSORTHOVIEW
 70
     0
  9
$UCSORGTOP
 10
0.0
 20
0.0
 30
0.0
  9
$UCSORGBOTTOM
 10
0.0
 20
0.0
 30
0.0
  9
$UCSORGLEFT
 10
0.0
 20
0.0
 30
0.0
  9
$UCSORGRIGHT
 10
0.0
 20
0.0
 30
0.0
  9
$UCSORGFRONT
 10
0.0
 20
0.0
 30
0.0
  9
$UCSORGBACK
 10
0.0
 20
0.0
 30
0.0
  9
$PUCSBASE
  2

  9
$PUCSNAME
  2

  9
$PUCSORG
 10
0.0
 20
0.0
 30
0.0
  9
$PUCSXDIR
 10
1.0
 20
0.0
 30
0.0
  9
$PUCSYDIR
 10
0.0
 20
1.0
 30
0.0
  9
$PUCSORTHOREF
  2

  9
$PUCSORTHOVIEW
 70
     0
  9
$PUCSORGTOP
 10
0.0
 20
0.0
 30
0.0
  9
$PUCSORGBOTTOM
 10
0.0
 20
0.0
 30
0.0
  9
$PUCSORGLEFT
 10
0.0
 20
0.0
 30
0.0
  9
$PUCSORGRIGHT
 10
0.0
 20
0.0
 30
0.0
  9
$PUCSORGFRONT
 10
0.0
 20
0.0
 30
0.0
  9
$PUCSORGBACK
 10
0.0
 20
0.0
 30
0.0
  9
$USERI1
 70
     0
  9
$USERI2
 70
     0
  9
$USERI3
 70
     0
  9
$USERI4
 70
     0
  9
$USERI5
 70
     0
  9
$USERR1
 40
0.0
  9
$USERR2
 40
0.0
  9
$USERR3
 40
0.0
  9
$USERR4
 40
0.0
  9
$USERR5
 40
0.0
  9
$WORLDVIEW
 70
     1
  9
$SHADEDGE
 70
     3
  9
$SHADEDIF
 70
    70
  9
$TILEMODE
 70
     1
  9
$MAXACTVP
 70
    64
  9
$PINSBASE
 10
0.0
 20
0.0
 30
0.0
  9
$PLIMCHECK
 70
     0
  9
$PEXTMIN
 10
1.000000E+20
 20
1.000000E+20
 30
1.000000E+20
  9
$PEXTMAX
 10
-1.000000E+20
 20
-1.000000E+20
 30
-1.000000E+20
  9
$PLIMMIN
 10
0.0
 20
0.0
  9
$PLIMMAX
 10
0.0
 20
0.0
  9
$UNITMODE
 70
     0
  9
$VISRETAIN
 70
     1
  9
$PLINEGEN
 70
     0
  9
$PSLTSCALE
 70
     0
  9
$TREEDEPTH
 70
  3020
  9
$CMLSTYLE
  2
Standard
  9
$CMLJUST
 70
     0
  9
$CMLSCALE
 40
1.0
  9
$PROXYGRAPHICS
 70
     1
  9
$MEASUREMENT
 70
     0
  9
$CELWEIGHT
370
    -1
  9
$ENDCAPS
280
     0
  9
$JOINSTYLE
280
     0
  9
$LWDISPLAY
290
     0
  9
$INSUNITS
 70
     0
  9
$HYPERLINKBASE
  1

  9
$STYLESHEET
  1

  9
$XEDIT
290
     1
  9
$CEPSNTYPE
380
     0
  9
$PSTYLEMODE
290
     1
  9
$FINGERPRINTGUID
  2
{374FAA86-D32D-400E-88A5-E8239299A0A4}
  9
$VERSIONGUID
  2
{FAEB1C32-E019-11D5-929B-00C0DF256EC4}
  9
$EXTNAMES
290
     1
  9
$PSVPSCALE
 40
0.0
  9
$OLESTARTUP
290
     0
  9
$SORTENTS
280
   127
  9
$INDEXCTL
280
     0
  9
$HIDETEXT
280
     1
  9
$XCLIPFRAME
280
     2
  9
$HALOGAP
280
     0
  9
$OBSCOLOR
 70
   257
  9
$OBSLTYPE
280
     0
  9
$INTERSECTIONDISPLAY
280
     0
  9
$INTERSECTIONCOLOR
 70
   257
  9
$DIMASSOC
280
     2
  9
$PROJECTNAME
  1

  9
$CAMERADISPLAY
290
     0
  9
$LENSLENGTH
 40
50.0
  9
$CAMERAHEIGHT
 40
0.0
  9
$STEPSPERSEC
 40
2.0
  9
$STEPSIZE
 40
6.0
  9
$3DDWFPREC
 40
2.0
  9
$PSOLWIDTH
 40
0.25
  9
$PSOLHEIGHT
 40
4.0
  9
$LOFTANG1
 40
1.570796
  9
$LOFTANG2
 40
1.570796
  9
$LOFTMAG1
 40
0.0
  9
$LOFTMAG2
 40
0.0
  9
$LOFTPARAM
 70
     7
  9
$LOFTNORMALS
280
     1
  9
$LATITUDE
 40
37.795
  9
$LONGITUDE
 40
-122.394
  9
$NORTHDIRECTION
 40
0.0
  9
$TIMEZONE
 70
 -8000
  9
$LIGHTGLYPHDISPLAY
280
     1
  9
$TILEMODELIGHTSYNCH
280
     1
  9
$SOLIDHIST
280
     1
  9
$SHOWHIST
280
     1
  9
$DWFFRAME
280
     2
  9
$DGNFRAME
280
     2
  9
$REALWORLDSCALE
290
     1
  9
$INTERFERECOLOR
 62
   256
  9
$CSHADOW
280
     0
  9
$SHADOWPLANELOCATION
 40
0.0
  0
ENDSEC
  0
SECTION
  2
CLASSES
  0
CLASS
  1
ACDBDICTIONARYWDFLT
  2
AcDbDictionaryWithDefault
  3
ObjectDBX Classes
 90
        0
 91
        6
280
     0
281
     0
  0
CLASS
  1
MATERIAL
  2
AcDbMaterial
  3
ObjectDBX Classes
 90
     1153
 91
        5
280
     0
281
     0
  0
CLASS
  1
SCALE
  2
AcDbScale
  3
ObjectDBX Classes
 90
     1153
 91
        5
280
     0
281
     0
  0
CLASS
  1
VISUALSTYLE
  2
AcDbVisualStyle
  3
ObjectDBX Classes
 90
     4095
 91
        5
280
     0
281
     0
  0
CLASS
  1
SUN
  2
AcDbSun
  3
SCENEOE
 90
     1153
 91
        5
280
     0
281
     0
  0
CLASS
  1
TABLESTYLE
  2
AcDbTableStyle
  3
ObjectDBX Classes
 90
     4095
 91
        5
280
     0
281
     0
  0
CLASS
  1
CSACDOCUMENTOPTIONS
  2
CDocDataContainer
  3
"DERU003_CSAPP"
 90
     4095
 91
        4
280
     0
281
     0
  0
CLASS
  1
SORTENTSTABLE
  2
AcDbSortentsTable
  3
ObjectDBX Classes
 90
        0
 91
        4
280
     0
281
     0
  0
CLASS
  1
DICTIONARYVAR
  2
AcDbDictionaryVar
  3
ObjectDBX Classes
 90
        0
 91
        4
280
     0
281
     0
  0
CLASS
  1
CELLSTYLEMAP
  2
AcDbCellStyleMap
  3
ObjectDBX Classes
 90
     1152
 91
        4
280
     0
281
     0
  0
CLASS
  1
XRECORD
  2
AcDbXrecord
  3
ObjectDBX Classes
 90
        0
 91
        1
280
     0
281
     0
  0
CLASS
  1
LWPOLYLINE
  2
AcDbPolyline
  3
ObjectDBX Classes
 90
        0
 91
        1
280
     0
281
     1
  0
CLASS
  1
HATCH
  2
AcDbHatch
  3
ObjectDBX Classes
 90
        0
 91
        1
280
     0
281
     1
  0
CLASS
  1
ACDBPLACEHOLDER
  2
AcDbPlaceHolder
  3
ObjectDBX Classes
 90
        0
 91
        1
280
     0
281
     0
  0
CLASS
  1
LAYOUT
  2
AcDbLayout
  3
ObjectDBX Classes
 90
        0
 91
        1
280
     0
281
     0
  0
CLASS
  1
refEditorObject
  2
refEditorObject
  3
"host"
 90
        0
 91
        4
280
     0
281
     0
  0
ENDSEC
  0
SECTION
  2
TABLES
  0
TABLE
  2
VPORT
  5
564F
330
0
100
AcDbSymbolTable
 70
     1
  0
VPORT
  5
5666
330
564F
100
AcDbSymbolTableRecord
100
AcDbViewportTableRecord
  2
*ACTIVE
 70
     0
 10
0.0
 20
0.0
 11
1.0
 21
1.0
 12
453.446048
 22
274.981999
 13
0.0
 23
0.0
 14
10.0
 24
10.0
 15
10.0
 25
10.0
 16
0.0
 26
0.0
 36
1.0
 17
0.0
 27
0.0
 37
0.0
 40
676.400141
 41
2.305623
 42
50.0
 43
0.0
 44
0.0
 50
0.0
 51
0.0
 71
    16
 72
  2000
 73
     1
 74
     3
 75
     0
 76
     0
 77
     0
 78
     0
281
     0
 65
     0
110
0.0
120
0.0
130
0.0
111
1.0
121
0.0
131
0.0
112
0.0
122
1.0
132
0.0
 79
     0
146
0.0
 60
     3
 61
     5
292
     1
282
     1
141
0.0
142
0.0
 63
   256
361
56F1
  0
ENDTAB
  0
TABLE
  2
LTYPE
  5
564C
330
0
100
AcDbSymbolTable
 70
     6
  0
LTYPE
  5
565A
330
564C
100
AcDbSymbolTableRecord
100
AcDbLinetypeTableRecord
  2
ByBlock
 70
     0
  3

 72
    65
 73
     0
 40
0.0
  0
LTYPE
  5
565B
330
564C
100
AcDbSymbolTableRecord
100
AcDbLinetypeTableRecord
  2
ByLayer
 70
     0
  3

 72
    65
 73
     0
 40
0.0
  0
LTYPE
  5
565C
330
564C
100
AcDbSymbolTableRecord
100
AcDbLinetypeTableRecord
  2
CONTINUOUS
 70
     0
  3
Solid line
 72
    65
 73
     0
 40
0.0
  0
LTYPE
  5
5668
330
564C
100
AcDbSymbolTableRecord
100
AcDbLinetypeTableRecord
  2
HIDDEN
 70
     0
  3
Hidden __ __ __ __ __ __ __ __ __ __ __ __ __ __
 72
    65
 73
     2
 40
1.905
 49
1.27
 74
     0
 49
-0.635
 74
     0
  0
LTYPE
  5
5669
330
564C
100
AcDbSymbolTableRecord
100
AcDbLinetypeTableRecord
  2
PHANTOM
 70
     0
  3
Phantom ______  __  __  ______  __  __  ______
 72
    65
 73
     6
 40
12.7
 49
6.35
 74
     0
 49
-1.27
 74
     0
 49
1.27
 74
     0
 49
-1.27
 74
     0
 49
1.27
 74
     0
 49
-1.27
 74
     0
  0
LTYPE
  5
566A
330
564C
100
AcDbSymbolTableRecord
100
AcDbLinetypeTableRecord
  2
CENTER
 70
     0
  3
Center ____ _ ____ _ ____ _ ____ _ ____ _ ____
 72
    65
 73
     4
 40
10.16
 49
6.35
 74
     0
 49
-1.27
 74
     0
 49
1.27
 74
     0
 49
-1.27
 74
     0
  0
LTYPE
  5
566B
330
564C
100
AcDbSymbolTableRecord
100
AcDbLinetypeTableRecord
  2
CENTERX2
 70
     0
  3
Center (2x) ________  __  ________  __  _____
 72
    65
 73
     4
 40
20.32
 49
12.7
 74
     0
 49
-2.54
 74
     0
 49
2.54
 74
     0
 49
-2.54
 74
     0
  0
LTYPE
  5
566C
330
564C
100
AcDbSymbolTableRecord
100
AcDbLinetypeTableRecord
  2
DOT2
 70
     0
  3
Dot (.5x) ........................................
 72
    65
 73
     2
 40
0.635
 49
0.0
 74
     0
 49
-0.635
 74
     0
  0
ENDTAB
  0
TABLE
  2
LAYER
  5
5649
330
0
100
AcDbSymbolTable
 70
     5
  0
LAYER
  5
5657
330
5649
100
AcDbSymbolTableRecord
100
AcDbLayerTableRecord
  2
0
 70
     0
 62
     7
  6
CONTINUOUS
370
    -3
390
5656
347
5671
348
0
  0
LAYER
  5
5672
330
5649
100
AcDbSymbolTableRecord
100
AcDbLayerTableRecord
  2
QUOTE
 70
     0
 62
     3
  6
CONTINUOUS
370
    -3
390
5656
347
5671
348
0
  0
LAYER
  5
5673
330
5649
100
AcDbSymbolTableRecord
100
AcDbLayerTableRecord
  2
ASSI
 70
     0
 62
     1
  6
CENTERX2
370
    -3
390
5656
347
5671
348
0
  0
LAYER
  5
5674
330
5649
100
AcDbSymbolTableRecord
100
AcDbLayerTableRecord
  2
TRATTEGGIO
 70
     0
 62
     4
  6
CONTINUOUS
370
    -3
390
5656
347
5671
348
0
  0
LAYER
  5
5675
330
5649
100
AcDbSymbolTableRecord
100
AcDbLayerTableRecord
  2
DEFPOINTS
 70
     0
 62
     7
  6
CONTINUOUS
290
     0
370
    -3
390
5656
347
5671
348
0
  0
ENDTAB
  0
TABLE
  2
STYLE
  5
564A
330
0
100
AcDbSymbolTable
 70
     2
  0
STYLE
  5
5658
330
564A
100
AcDbSymbolTableRecord
100
AcDbTextStyleTableRecord
  2
STANDARD
 70
     0
 40
0.0
 41
1.0
 50
0.0
 71
     0
 42
5.6
  3
txt
  4

  0
STYLE
  5
5677
330
564A
100
AcDbSymbolTableRecord
100
AcDbTextStyleTableRecord
  2
SLDTEXTSTYLE0
 70
     0
 40
0.0
 41
0.75
 50
0.0
 71
     0
 42
5.6
  3
TXT
  4

  0
ENDTAB
  0
TABLE
  2
VIEW
  5
564D
330
0
100
AcDbSymbolTable
 70
     0
  0
ENDTAB
  0
TABLE
  2
UCS
  5
564E
330
0
100
AcDbSymbolTable
 70
     0
  0
ENDTAB
  0
TABLE
  2
APPID
  5
5650
330
0
100
AcDbSymbolTable
 70
     7
  0
APPID
  5
5659
330
5650
100
AcDbSymbolTableRecord
100
AcDbRegAppTableRecord
  2
ACAD
 70
     0
  0
APPID
  5
5679
330
5650
100
AcDbSymbolTableRecord
100
AcDbRegAppTableRecord
  2
ACAD_DSTYLE_DIMRADIAL_EXTE
 70
     0
  0
APPID
  5
56EC
330
5650
100
AcDbSymbolTableRecord
100
AcDbRegAppTableRecord
  2
MCS_DIM1
 70
     0
  0
APPID
  5
56ED
330
5650
100
AcDbSymbolTableRecord
100
AcDbRegAppTableRecord
  2
McsXdata5
 70
     0
  0
APPID
  5
56F0
330
5650
100
AcDbSymbolTableRecord
100
AcDbRegAppTableRecord
  2
MCS_DOCUMENT_ID
 70
     0
  0
APPID
  5
5775
330
5650
100
AcDbSymbolTableRecord
100
AcDbRegAppTableRecord
  2
MCS_PARAMS_DATA
 70
     0
  0
APPID
  5
5777
330
5650
100
AcDbSymbolTableRecord
100
AcDbRegAppTableRecord
  2
MC_VERSION_DATA
 70
     0
  0
ENDTAB
  0
TABLE
  2
DIMSTYLE
  5
5651
330
0
100
AcDbSymbolTable
 70
     1
100
AcDbDimStyleTable
  0
DIMSTYLE
105
567A
330
5651
100
AcDbSymbolTableRecord
100
AcDbDimStyleTableRecord
  2
ISO-25
 70
     0
 41
2.5
 42
0.625
 43
3.75
 44
1.25
 73
     0
 74
     0
 77
     1
 78
     8
140
2.5
141
2.5
143
0.03937
147
0.625
171
     3
172
     1
178
     0
340
5658
  0
ENDTAB
  0
TABLE
  2
BLOCK_RECORD
  5
5648
330
0
100
AcDbSymbolTable
 70
    30
  0
BLOCK_RECORD
  5
5663
102
{ACAD_XDICTIONARY
360
57DB
102
}
330
5648
100
AcDbSymbolTableRecord
100
AcDbBlockTableRecord
  2
*Model_Space
340
5664
 70
     0
280
     1
281
     0
  0
BLOCK_RECORD
  5
5661
330
5648
100
AcDbSymbolTableRecord
100
AcDbBlockTableRecord
  2
*Paper_Space
340
5662
 70
     0
280
     1
281
     0
  0
BLOCK_RECORD
  5
567E
330
5648
100
AcDbSymbolTableRecord
100
AcDbBlockTableRecord
  2
SW_NOTE_0
340
0
 70
     0
280
     1
281
     0
  0
BLOCK_RECORD
  5
5680
330
5648
100
AcDbSymbolTableRecord
100
AcDbBlockTableRecord
  2
SW_CENTERMARKSYMBOL_0
340
0
102
{BLKREFS
331
57E0
331
5CB1
102
}
 70
     0
280
     1
281
     0
  0
BLOCK_RECORD
  5
5682
330
5648
100
AcDbSymbolTableRecord
100
AcDbBlockTableRecord
  2
SW_CENTERMARKSYMBOL_1
340
0
102
{BLKREFS
331
57E1
331
5CB2
102
}
 70
     0
280
     1
281
     0
  0
BLOCK_RECORD
  5
5684
330
5648
100
AcDbSymbolTableRecord
100
AcDbBlockTableRecord
  2
SW_CENTERMARKSYMBOL_2
340
0
102
{BLKREFS
331
57E2
331
5CB3
102
}
 70
     0
280
     1
281
     0
  0
BLOCK_RECORD
  5
5686
330
5648
100
AcDbSymbolTableRecord
100
AcDbBlockTableRecord
  2
SW_CENTERMARKSYMBOL_3
340
0
102
{BLKREFS
331
1A3
331
5CA7
102
}
 70
     0
280
     1
281
     0
  0
BLOCK_RECORD
  5
5688
330
5648
100
AcDbSymbolTableRecord
100
AcDbBlockTableRecord
  2
SW_CENTERMARKSYMBOL_4
340
0
102
{BLKREFS
331
1AF
331
5CA8
102
}
 70
     0
280
     1
281
     0
  0
BLOCK_RECORD
  5
568A
330
5648
100
AcDbSymbolTableRecord
100
AcDbBlockTableRecord
  2
SW_CENTERMARKSYMBOL_5
340
0
102
{BLKREFS
331
1BB
331
5CA9
102
}
 70
     0
280
     1
281
     0
  0
BLOCK_RECORD
  5
568E
330
5648
100
AcDbSymbolTableRecord
100
AcDbBlockTableRecord
  2
*X8
340
0
102
{BLKREFS
331
5BC5
331
5CCB
102
}
 70
     0
280
     1
281
     0
  0
BLOCK_RECORD
  5
577D
102
{ACAD_XDICTIONARY
360
579E
102
}
330
5648
100
AcDbSymbolTableRecord
100
AcDbBlockTableRecord
  2
Appunti30973
340
0
102
{BLKREFS
331
57DA
331
5CAD
102
}
 70
     4
280
     1
281
     0
1001
ACAD
1000
DesignCenter Data
1002
{
1070
     1
1070
     4
1002
}
  0
BLOCK_RECORD
  5
59AE
102
{ACAD_XDICTIONARY
360
59CF
102
}
330
5648
100
AcDbSymbolTableRecord
100
AcDbBlockTableRecord
  2
Appunti31283
340
0
102
{BLKREFS
331
5A76
331
5CB5
102
}
 70
     0
280
     1
281
     0
  0
BLOCK_RECORD
  5
5A77
102
{ACAD_XDICTIONARY
360
5A98
102
}
330
5648
100
AcDbSymbolTableRecord
100
AcDbBlockTableRecord
  2
Appunti31446
340
0
102
{BLKREFS
331
5B13
331
5CB6
102
}
 70
     0
280
     1
281
     0
  0
BLOCK_RECORD
  5
5B15
102
{ACAD_XDICTIONARY
360
5B36
102
}
330
5648
100
AcDbSymbolTableRecord
100
AcDbBlockTableRecord
  2
Appunti31783
340
0
102
{BLKREFS
331
5B91
331
5CB7
102
}
 70
     0
280
     1
281
     0
  0
ENDTAB
  0
ENDSEC
  0
SECTION
  2
BLOCKS
  0
BLOCK
  5
567B
330
5663
100
AcDbEntity
  8
0
100
AcDbBlockBegin
  2
*Model_Space
 70
     0
 10
0.0
 20
0.0
 30
0.0
  3
*Model_Space
  1
*Model_Space
  0
ENDBLK
  5
21
330
5663
100
AcDbEntity
  8
0
100
AcDbBlockEnd
  0
BLOCK
  5
567C
330
5661
100
AcDbEntity
 67
     1
  8
0
100
AcDbBlockBegin
  2
*Paper_Space
 70
     0
 10
0.0
 20
0.0
 30
0.0
  3
*Paper_Space
  1
*Paper_Space
  0
ENDBLK
  5
1D
330
5661
100
AcDbEntity
 67
     1
  8
0
100
AcDbBlockEnd
  0
BLOCK
  5
567D
330
567E
100
AcDbEntity
  8
0
100
AcDbBlockBegin
  2
SW_NOTE_0
 70
     0
 10
0.0
 20
0.0
 30
0.0
  3
SW_NOTE_0
  1
SW_NOTE_0
  0
TEXT
  5
7A
330
567E
100
AcDbEntity
  8
0
  6
Continuous
 62
     0
100
AcDbText
 10
0.0
 20
2.294475
 30
0.0
 40
7.9375
  1
835E10R
 41
0.75
  7
SLDTEXTSTYLE0
100
AcDbText
  0
TEXT
  5
7B
330
567E
100
AcDbEntity
  8
0
  6
Continuous
 62
     0
100
AcDbText
 10
0.0
 20
-10.288858
 30
0.0
 40
7.9375
  1
835E10L
 41
0.75
  7
SLDTEXTSTYLE0
100
AcDbText
  0
ENDBLK
  5
78
330
567E
100
AcDbEntity
  8
0
100
AcDbBlockEnd
  0
BLOCK
  5
567F
330
5680
100
AcDbEntity
  8
0
100
AcDbBlockBegin
  2
SW_CENTERMARKSYMBOL_0
 70
     0
 10
0.0
 20
0.0
 30
0.0
  3
SW_CENTERMARKSYMBOL_0
  1
SW_CENTERMARKSYMBOL_0
  0
LINE
  5
10C
330
5680
100
AcDbEntity
  8
ASSI
 62
     0
100
AcDbLine
 10
0.0
 20
0.0
 30
0.0
 11
0.0
 21
2.5
 31
0.0
  0
LINE
  5
10D
330
5680
100
AcDbEntity
  8
ASSI
 62
     0
100
AcDbLine
 10
0.0
 20
0.0
 30
0.0
 11
-2.5
 21
0.0
 31
0.0
  0
LINE
  5
10E
330
5680
100
AcDbEntity
  8
ASSI
 62
     0
100
AcDbLine
 10
0.0
 20
0.0
 30
0.0
 11
0.0
 21
-2.5
 31
0.0
  0
LINE
  5
10F
330
5680
100
AcDbEntity
  8
ASSI
 62
     0
100
AcDbLine
 10
0.0
 20
0.0
 30
0.0
 11
2.5
 21
0.0
 31
0.0
  0
LINE
  5
110
330
5680
100
AcDbEntity
  8
ASSI
 62
     0
100
AcDbLine
 10
0.0
 20
5.0
 30
0.0
 11
0.0
 21
12.5
 31
0.0
  0
LINE
  5
111
330
5680
100
AcDbEntity
  8
ASSI
 62
     0
100
AcDbLine
 10
-5.0
 20
0.0
 30
0.0
 11
-12.5
 21
0.0
 31
0.0
  0
LINE
  5
112
330
5680
100
AcDbEntity
  8
ASSI
 62
     0
100
AcDbLine
 10
0.0
 20
-5.0
 30
0.0
 11
0.0
 21
-12.5
 31
0.0
  0
LINE
  5
113
330
5680
100
AcDbEntity
  8
ASSI
 62
     0
100
AcDbLine
 10
5.0
 20
0.0
 30
0.0
 11
12.5
 21
0.0
 31
0.0
  0
ENDBLK
  5
10B
330
5680
100
AcDbEntity
  8
0
100
AcDbBlockEnd
  0
BLOCK
  5
5681
330
5682
100
AcDbEntity
  8
0
100
AcDbBlockBegin
  2
SW_CENTERMARKSYMBOL_1
 70
     0
 10
0.0
 20
0.0
 30
0.0
  3
SW_CENTERMARKSYMBOL_1
  1
SW_CENTERMARKSYMBOL_1
  0
LINE
  5
118
330
5682
100
AcDbEntity
  8
ASSI
 62
     0
100
AcDbLine
 10
0.0
 20
0.0
 30
0.0
 11
0.0
 21
2.5
 31
0.0
  0
LINE
  5
119
330
5682
100
AcDbEntity
  8
ASSI
 62
     0
100
AcDbLine
 10
0.0
 20
0.0
 30
0.0
 11
-2.5
 21
0.0
 31
0.0
  0
LINE
  5
11A
330
5682
100
AcDbEntity
  8
ASSI
 62
     0
100
AcDbLine
 10
0.0
 20
0.0
 30
0.0
 11
0.0
 21
-2.5
 31
0.0
  0
LINE
  5
11B
330
5682
100
AcDbEntity
  8
ASSI
 62
     0
100
AcDbLine
 10
0.0
 20
0.0
 30
0.0
 11
2.5
 21
0.0
 31
0.0
  0
LINE
  5
11C
330
5682
100
AcDbEntity
  8
ASSI
 62
     0
100
AcDbLine
 10
0.0
 20
5.0
 30
0.0
 11
0.0
 21
12.0
 31
0.0
  0
LINE
  5
11D
330
5682
100
AcDbEntity
  8
ASSI
 62
     0
100
AcDbLine
 10
-5.0
 20
0.0
 30
0.0
 11
-12.0
 21
0.0
 31
0.0
  0
LINE
  5
11E
330
5682
100
AcDbEntity
  8
ASSI
 62
     0
100
AcDbLine
 10
0.0
 20
-5.0
 30
0.0
 11
0.0
 21
-12.0
 31
0.0
  0
LINE
  5
11F
330
5682
100
AcDbEntity
  8
ASSI
 62
     0
100
AcDbLine
 10
5.0
 20
0.0
 30
0.0
 11
12.0
 21
0.0
 31
0.0
  0
ENDBLK
  5
117
330
5682
100
AcDbEntity
  8
0
100
AcDbBlockEnd
  0
BLOCK
  5
5683
330
5684
100
AcDbEntity
  8
0
100
AcDbBlockBegin
  2
SW_CENTERMARKSYMBOL_2
 70
     0
 10
0.0
 20
0.0
 30
0.0
  3
SW_CENTERMARKSYMBOL_2
  1
SW_CENTERMARKSYMBOL_2
  0
LINE
  5
124
330
5684
100
AcDbEntity
  8
ASSI
 62
     0
100
AcDbLine
 10
0.0
 20
0.0
 30
0.0
 11
0.0
 21
2.5
 31
0.0
  0
LINE
  5
125
330
5684
100
AcDbEntity
  8
ASSI
 62
     0
100
AcDbLine
 10
0.0
 20
0.0
 30
0.0
 11
-2.5
 21
0.0
 31
0.0
  0
LINE
  5
126
330
5684
100
AcDbEntity
  8
ASSI
 62
     0
100
AcDbLine
 10
0.0
 20
0.0
 30
0.0
 11
0.0
 21
-2.5
 31
0.0
  0
LINE
  5
127
330
5684
100
AcDbEntity
  8
ASSI
 62
     0
100
AcDbLine
 10
0.0
 20
0.0
 30
0.0
 11
2.5
 21
0.0
 31
0.0
  0
LINE
  5
128
330
5684
100
AcDbEntity
  8
ASSI
 62
     0
100
AcDbLine
 10
0.0
 20
5.0
 30
0.0
 11
0.0
 21
12.5
 31
0.0
  0
LINE
  5
129
330
5684
100
AcDbEntity
  8
ASSI
 62
     0
100
AcDbLine
 10
-5.0
 20
0.0
 30
0.0
 11
-12.5
 21
0.0
 31
0.0
  0
LINE
  5
12A
330
5684
100
AcDbEntity
  8
ASSI
 62
     0
100
AcDbLine
 10
0.0
 20
-5.0
 30
0.0
 11
0.0
 21
-12.5
 31
0.0
  0
LINE
  5
12B
330
5684
100
AcDbEntity
  8
ASSI
 62
     0
100
AcDbLine
 10
5.0
 20
0.0
 30
0.0
 11
12.5
 21
0.0
 31
0.0
  0
ENDBLK
  5
123
330
5684
100
AcDbEntity
  8
0
100
AcDbBlockEnd
  0
BLOCK
  5
5685
330
5686
100
AcDbEntity
  8
0
100
AcDbBlockBegin
  2
SW_CENTERMARKSYMBOL_3
 70
     0
 10
0.0
 20
0.0
 30
0.0
  3
SW_CENTERMARKSYMBOL_3
  1
SW_CENTERMARKSYMBOL_3
  0
LINE
  5
19B
330
5686
100
AcDbEntity
  8
ASSI
 62
     0
100
AcDbLine
 10
0.0
 20
0.0
 30
0.0
 11
0.0
 21
2.5
 31
0.0
  0
LINE
  5
19C
330
5686
100
AcDbEntity
  8
ASSI
 62
     0
100
AcDbLine
 10
0.0
 20
0.0
 30
0.0
 11
-2.5
 21
0.0
 31
0.0
  0
LINE
  5
19D
330
5686
100
AcDbEntity
  8
ASSI
 62
     0
100
AcDbLine
 10
0.0
 20
0.0
 30
0.0
 11
0.0
 21
-2.5
 31
0.0
  0
LINE
  5
19E
330
5686
100
AcDbEntity
  8
ASSI
 62
     0
100
AcDbLine
 10
0.0
 20
0.0
 30
0.0
 11
2.5
 21
0.0
 31
0.0
  0
LINE
  5
19F
330
5686
100
AcDbEntity
  8
ASSI
 62
     0
100
AcDbLine
 10
0.0
 20
5.0
 30
0.0
 11
0.0
 21
7.7
 31
0.0
  0
LINE
  5
1A0
330
5686
100
AcDbEntity
  8
ASSI
 62
     0
100
AcDbLine
 10
-5.0
 20
0.0
 30
0.0
 11
-7.7
 21
0.0
 31
0.0
  0
LINE
  5
1A1
330
5686
100
AcDbEntity
  8
ASSI
 62
     0
100
AcDbLine
 10
0.0
 20
-5.0
 30
0.0
 11
0.0
 21
-7.7
 31
0.0
  0
LINE
  5
1A2
330
5686
100
AcDbEntity
  8
ASSI
 62
     0
100
AcDbLine
 10
5.0
 20
0.0
 30
0.0
 11
7.7
 21
0.0
 31
0.0
  0
ENDBLK
  5
19A
330
5686
100
AcDbEntity
  8
0
100
AcDbBlockEnd
  0
BLOCK
  5
5687
330
5688
100
AcDbEntity
  8
0
100
AcDbBlockBegin
  2
SW_CENTERMARKSYMBOL_4
 70
     0
 10
0.0
 20
0.0
 30
0.0
  3
SW_CENTERMARKSYMBOL_4
  1
SW_CENTERMARKSYMBOL_4
  0
LINE
  5
1A7
330
5688
100
AcDbEntity
  8
ASSI
 62
     0
100
AcDbLine
 10
0.0
 20
0.0
 30
0.0
 11
0.0
 21
2.5
 31
0.0
  0
LINE
  5
1A8
330
5688
100
AcDbEntity
  8
ASSI
 62
     0
100
AcDbLine
 10
0.0
 20
0.0
 30
0.0
 11
-2.5
 21
0.0
 31
0.0
  0
LINE
  5
1A9
330
5688
100
AcDbEntity
  8
ASSI
 62
     0
100
AcDbLine
 10
0.0
 20
0.0
 30
0.0
 11
0.0
 21
-2.5
 31
0.0
  0
LINE
  5
1AA
330
5688
100
AcDbEntity
  8
ASSI
 62
     0
100
AcDbLine
 10
0.0
 20
0.0
 30
0.0
 11
2.5
 21
0.0
 31
0.0
  0
LINE
  5
1AB
330
5688
100
AcDbEntity
  8
ASSI
 62
     0
100
AcDbLine
 10
0.0
 20
5.0
 30
0.0
 11
0.0
 21
7.7
 31
0.0
  0
LINE
  5
1AC
330
5688
100
AcDbEntity
  8
ASSI
 62
     0
100
AcDbLine
 10
-5.0
 20
0.0
 30
0.0
 11
-7.7
 21
0.0
 31
0.0
  0
LINE
  5
1AD
330
5688
100
AcDbEntity
  8
ASSI
 62
     0
100
AcDbLine
 10
0.0
 20
-5.0
 30
0.0
 11
0.0
 21
-7.7
 31
0.0
  0
LINE
  5
1AE
330
5688
100
AcDbEntity
  8
ASSI
 62
     0
100
AcDbLine
 10
5.0
 20
0.0
 30
0.0
 11
7.7
 21
0.0
 31
0.0
  0
ENDBLK
  5
1A6
330
5688
100
AcDbEntity
  8
0
100
AcDbBlockEnd
  0
BLOCK
  5
5689
330
568A
100
AcDbEntity
  8
0
100
AcDbBlockBegin
  2
SW_CENTERMARKSYMBOL_5
 70
     0
 10
0.0
 20
0.0
 30
0.0
  3
SW_CENTERMARKSYMBOL_5
  1
SW_CENTERMARKSYMBOL_5
  0
LINE
  5
1B3
330
568A
100
AcDbEntity
  8
ASSI
 62
     0
100
AcDbLine
 10
0.0
 20
0.0
 30
0.0
 11
0.0
 21
2.5
 31
0.0
  0
LINE
  5
1B4
330
568A
100
AcDbEntity
  8
ASSI
 62
     0
100
AcDbLine
 10
0.0
 20
0.0
 30
0.0
 11
-2.5
 21
0.0
 31
0.0
  0
LINE
  5
1B5
330
568A
100
AcDbEntity
  8
ASSI
 62
     0
100
AcDbLine
 10
0.0
 20
0.0
 30
0.0
 11
0.0
 21
-2.5
 31
0.0
  0
LINE
  5
1B6
330
568A
100
AcDbEntity
  8
ASSI
 62
     0
100
AcDbLine
 10
0.0
 20
0.0
 30
0.0
 11
2.5
 21
0.0
 31
0.0
  0
LINE
  5
1B7
330
568A
100
AcDbEntity
  8
ASSI
 62
     0
100
AcDbLine
 10
0.0
 20
5.0
 30
0.0
 11
0.0
 21
7.7
 31
0.0
  0
LINE
  5
1B8
330
568A
100
AcDbEntity
  8
ASSI
 62
     0
100
AcDbLine
 10
-5.0
 20
0.0
 30
0.0
 11
-7.7
 21
0.0
 31
0.0
  0
LINE
  5
1B9
330
568A
100
AcDbEntity
  8
ASSI
 62
     0
100
AcDbLine
 10
0.0
 20
-5.0
 30
0.0
 11
0.0
 21
-7.7
 31
0.0
  0
LINE
  5
1BA
330
568A
100
AcDbEntity
  8
ASSI
 62
     0
100
AcDbLine
 10
5.0
 20
0.0
 30
0.0
 11
7.7
 21
0.0
 31
0.0
  0
ENDBLK
  5
1B2
330
568A
100
AcDbEntity
  8
0
100
AcDbBlockEnd
  0
BLOCK
  5
568D
330
568E
100
AcDbEntity
  8
0
100
AcDbBlockBegin
  2
*X8
 70
     1
 10
0.0
 20
0.0
 30
0.0
  3
*X8
  1
*X8
  0
LINE
  5
2CD9
330
568E
100
AcDbEntity
  8
TRATTEGGIO
  6
Continuous
 62
     4
100
AcDbLine
 10
82.459934
 20
154.301983
 30
0.0
 11
85.200487
 21
157.042536
 31
0.0
  0
LINE
  5
2CDA
330
568E
100
AcDbEntity
  8
TRATTEGGIO
  6
Continuous
 62
     4
100
AcDbLine
 10
82.459934
 20
149.811855
 30
0.0
 11
89.690615
 21
157.042536
 31
0.0
  0
LINE
  5
2CDB
330
568E
100
AcDbEntity
  8
TRATTEGGIO
  6
Continuous
 62
     4
100
AcDbLine
 10
82.459934
 20
145.321727
 30
0.0
 11
94.180743
 21
157.042536
 31
0.0
  0
LINE
  5
2CDC
330
568E
100
AcDbEntity
  8
TRATTEGGIO
  6
Continuous
 62
     4
100
AcDbLine
 10
82.459934
 20
140.831599
 30
0.0
 11
98.670871
 21
157.042536
 31
0.0
  0
LINE
  5
2CDD
330
568E
100
AcDbEntity
  8
TRATTEGGIO
  6
Continuous
 62
     4
100
AcDbLine
 10
82.459934
 20
136.341471
 30
0.0
 11
103.160999
 21
157.042536
 31
0.0
  0
LINE
  5
2CDE
330
568E
100
AcDbEntity
  8
TRATTEGGIO
  6
Continuous
 62
     4
100
AcDbLine
 10
82.459934
 20
131.851343
 30
0.0
 11
107.651127
 21
157.042536
 31
0.0
  0
LINE
  5
2CDF
330
568E
100
AcDbEntity
  8
TRATTEGGIO
  6
Continuous
 62
     4
100
AcDbLine
 10
82.459934
 20
127.361215
 30
0.0
 11
112.141255
 21
157.042536
 31
0.0
  0
LINE
  5
2CE0
330
568E
100
AcDbEntity
  8
TRATTEGGIO
  6
Continuous
 62
     4
100
AcDbLine
 10
82.459934
 20
122.871087
 30
0.0
 11
116.631384
 21
157.042536
 31
0.0
  0
LINE
  5
2CE1
330
568E
100
AcDbEntity
  8
TRATTEGGIO
  6
Continuous
 62
     4
100
AcDbLine
 10
82.459934
 20
118.380959
 30
0.0
 11
121.121512
 21
157.042536
 31
0.0
  0
LINE
  5
2CE2
330
568E
100
AcDbEntity
  8
TRATTEGGIO
  6
Continuous
 62
     4
100
AcDbLine
 10
82.459934
 20
113.890831
 30
0.0
 11
112.459934
 21
143.890831
 31
0.0
  0
LINE
  5
2CE3
330
568E
100
AcDbEntity
  8
TRATTEGGIO
  6
Continuous
 62
     4
100
AcDbLine
 10
115.61164
 20
147.042536
 30
0.0
 11
125.61164
 21
157.042536
 31
0.0
  0
LINE
  5
2CE4
330
568E
100
AcDbEntity
  8
TRATTEGGIO
  6
Continuous
 62
     4
100
AcDbLine
 10
82.459934
 20
109.400703
 30
0.0
 11
112.459934
 21
139.400703
 31
0.0
  0
LINE
  5
2CE5
330
568E
100
AcDbEntity
  8
TRATTEGGIO
  6
Continuous
 62
     4
100
AcDbLine
 10
82.459934
 20
104.910574
 30
0.0
 11
112.459934
 21
134.910574
 31
0.0
  0
LINE
  5
2CE6
330
568E
100
AcDbEntity
  8
TRATTEGGIO
  6
Continuous
 62
     4
100
AcDbLine
 10
120.101768
 20
147.042536
 30
0.0
 11
127.459934
 21
154.400703
 31
0.0
  0
LINE
  5
2CE7
330
568E
100
AcDbEntity
  8
TRATTEGGIO
  6
Continuous
 62
     4
100
AcDbLine
 10
124.591896
 20
147.042536
 30
0.0
 11
127.459934
 21
149.910574
 31
0.0
  0
LINE
  5
2CE8
330
568E
100
AcDbEntity
  8
TRATTEGGIO
  6
Continuous
 62
     4
100
AcDbLine
 10
82.459934
 20
100.420446
 30
0.0
 11
112.459934
 21
130.420446
 31
0.0
  0
LINE
  5
2CE9
330
568E
100
AcDbEntity
  8
TRATTEGGIO
  6
Continuous
 62
     4
100
AcDbLine
 10
83.572152
 20
97.042536
 30
0.0
 11
112.459934
 21
125.930318
 31
0.0
  0
LINE
  5
2CEA
330
568E
100
AcDbEntity
  8
TRATTEGGIO
  6
Continuous
 62
     4
100
AcDbLine
 10
88.06228
 20
97.042536
 30
0.0
 11
112.459934
 21
121.44019
 31
0.0
  0
LINE
  5
2CEB
330
568E
100
AcDbEntity
  8
TRATTEGGIO
  6
Continuous
 62
     4
100
AcDbLine
 10
92.552408
 20
97.042536
 30
0.0
 11
112.459934
 21
116.950062
 31
0.0
  0
LINE
  5
2CEC
330
568E
100
AcDbEntity
  8
TRATTEGGIO
  6
Continuous
 62
     4
100
AcDbLine
 10
97.042536
 20
97.042536
 30
0.0
 11
112.459934
 21
112.459934
 31
0.0
  0
LINE
  5
2CED
330
568E
100
AcDbEntity
  8
TRATTEGGIO
  6
Continuous
 62
     4
100
AcDbLine
 10
101.532664
 20
97.042536
 30
0.0
 11
112.459934
 21
107.969806
 31
0.0
  0
LINE
  5
2CEE
330
568E
100
AcDbEntity
  8
TRATTEGGIO
  6
Continuous
 62
     4
100
AcDbLine
 10
106.022792
 20
97.042536
 30
0.0
 11
112.459934
 21
103.479678
 31
0.0
  0
LINE
  5
2CEF
330
568E
100
AcDbEntity
  8
TRATTEGGIO
  6
Continuous
 62
     4
100
AcDbLine
 10
110.51292
 20
97.042536
 30
0.0
 11
112.459934
 21
98.98955
 31
0.0
  0
ENDBLK
  5
3A1D
330
568E
100
AcDbEntity
  8
0
100
AcDbBlockEnd
  0
BLOCK
  5
57D8
330
577D
100
AcDbEntity
  8
0
100
AcDbBlockBegin
  2
Appunti30973
 70
     0
 10
0.0
 20
0.0
 30
0.0
  3
Appunti30973
  1
Appunti30973
  0
LINE
  5
57A0
330
577D
100
AcDbEntity
  8
0
  6
Continuous
370
    25
100
AcDbLine
 10
3.0
 20
181.368038
 30
0.0
 11
3.0
 21
179.368038
 31
0.0
  0
LINE
  5
57A1
330
577D
100
AcDbEntity
  8
0
  6
Continuous
370
    25
100
AcDbLine
 10
31.0
 20
179.368038
 30
0.0
 11
31.0
 21
181.368038
 31
0.0
  0
ARC
  5
57A2
330
577D
100
AcDbEntity
  8
0
  6
Continuous
370
    25
100
AcDbCircle
 10
17.0
 20
150.201371
 30
0.0
 40
34.1666666666668
100
AcDbArc
 50
65.810486
 51
114.189514
  0
LINE
  5
57A3
330
577D
100
AcDbEntity
  8
0
  6
Continuous
370
    25
100
AcDbLine
 10
31.1
 20
164.946812
 30
0.0
 11
31.546298
 21
165.407209
 31
0.0
  0
LINE
  5
57A4
330
577D
100
AcDbEntity
  8
0
  6
Continuous
370
    25
100
AcDbLine
 10
31.546298
 20
170.328867
 30
0.0
 11
31.1
 21
170.789264
 31
0.0
  0
ARC
  5
57A5
330
577D
100
AcDbEntity
  8
0
  6
Continuous
370
    25
100
AcDbCircle
 10
17.0
 20
34.034704
 30
0.0
 40
34.16666666666675
100
AcDbArc
 50
275.090817
 51
294.189514
  0
ARC
  5
57A6
330
577D
100
AcDbEntity
  8
0
  6
Continuous
370
    25
100
AcDbCircle
 10
17.0
 20
34.034704
 30
0.0
 40
34.16666666666674
100
AcDbArc
 50
245.810486
 51
264.909183
  0
LINE
  5
57A7
330
577D
100
AcDbEntity
  8
0
  6
Continuous
370
    25
100
AcDbLine
 10
31.0
 20
2.868038
 30
0.0
 11
31.0
 21
4.868038
 31
0.0
  0
LINE
  5
57A8
330
577D
100
AcDbEntity
  8
0
  6
Continuous
370
    25
100
AcDbLine
 10
3.0
 20
4.868038
 30
0.0
 11
3.0
 21
2.868038
 31
0.0
  0
LINE
  5
57A9
330
577D
100
AcDbEntity
  8
0
  6
Continuous
370
    25
100
AcDbLine
 10
4.6
 20
90.168038
 30
0.0
 11
4.6
 21
89.868038
 31
0.0
  0
LINE
  5
57AA
330
577D
100
AcDbEntity
  8
0
  6
Continuous
370
    25
100
AcDbLine
 10
29.4
 20
89.868038
 30
0.0
 11
29.4
 21
90.168038
 31
0.0
  0
LINE
  5
57AB
330
577D
100
AcDbEntity
  8
0
  6
Continuous
370
    25
100
AcDbLine
 10
2.9
 20
179.368038
 30
0.0
 11
2.9
 21
94.368038
 31
0.0
  0
LINE
  5
57AC
330
577D
100
AcDbEntity
  8
0
  6
Continuous
370
    25
100
AcDbLine
 10
31.1
 20
169.601573
 30
0.0
 11
31.1
 21
179.368038
 31
0.0
  0
LINE
  5
57AD
330
577D
100
AcDbEntity
  8
0
  6
Continuous
370
    25
100
AcDbLine
 10
31.1
 20
94.368038
 30
0.0
 11
31.1
 21
166.134502
 31
0.0
  0
LINE
  5
57AE
330
577D
100
AcDbEntity
  8
0
  6
Continuous
370
    25
100
AcDbLine
 10
2.9
 20
89.868038
 30
0.0
 11
2.9
 21
4.868038
 31
0.0
  0
LINE
  5
57AF
330
577D
100
AcDbEntity
  8
0
  6
Continuous
370
    25
100
AcDbLine
 10
31.1
 20
4.868038
 30
0.0
 11
31.1
 21
89.868038
 31
0.0
  0
LINE
  5
57B0
330
577D
100
AcDbEntity
  8
0
  6
Continuous
370
    25
100
AcDbLine
 10
3.0
 20
93.968038
 30
0.0
 11
3.0
 21
90.168038
 31
0.0
  0
LINE
  5
57B1
330
577D
100
AcDbEntity
  8
0
  6
Continuous
370
    25
100
AcDbLine
 10
31.0
 20
90.168038
 30
0.0
 11
31.0
 21
93.968038
 31
0.0
  0
LINE
  5
57B2
330
577D
100
AcDbEntity
  8
0
  6
Continuous
370
    25
100
AcDbLine
 10
4.2
 20
94.368038
 30
0.0
 11
4.2
 21
93.968038
 31
0.0
  0
LINE
  5
57B3
330
577D
100
AcDbEntity
  8
0
  6
Continuous
370
    25
100
AcDbLine
 10
29.8
 20
93.968038
 30
0.0
 11
29.8
 21
94.368038
 31
0.0
  0
LINE
  5
57B4
330
577D
100
AcDbEntity
  8
0
  6
Continuous
370
    25
100
AcDbLine
 10
63.0
 20
178.418038
 30
0.0
 11
63.25
 21
178.418038
 31
0.0
  0
LINE
  5
57B5
330
577D
100
AcDbEntity
  8
0
  6
Continuous
370
    25
100
AcDbLine
 10
63.25
 20
95.318038
 30
0.0
 11
63.25
 21
178.418038
 31
0.0
  0
LINE
  5
57B6
330
577D
100
AcDbEntity
  8
0
  6
Continuous
370
    25
100
AcDbLine
 10
63.25
 20
95.318038
 30
0.0
 11
63.0
 21
95.318038
 31
0.0
  0
LINE
  5
57B7
330
577D
100
AcDbEntity
  8
0
  6
Continuous
370
    25
100
AcDbLine
 10
62.05
 20
94.368038
 30
0.0
 11
62.05
 21
94.118038
 31
0.0
  0
LINE
  5
57B8
330
577D
100
AcDbEntity
  8
0
  6
Continuous
370
    25
100
AcDbLine
 10
29.8
 20
94.118038
 30
0.0
 11
62.05
 21
94.118038
 31
0.0
  0
LINE
  5
57B9
330
577D
100
AcDbEntity
  8
0
  6
Continuous
370
    25
100
AcDbLine
 10
62.05
 20
179.618038
 30
0.0
 11
31.0
 21
179.618038
 31
0.0
  0
LINE
  5
57BA
330
577D
100
AcDbEntity
  8
0
  6
Continuous
370
    25
100
AcDbLine
 10
62.05
 20
179.618038
 30
0.0
 11
62.05
 21
179.368038
 31
0.0
  0
LINE
  5
57BB
330
577D
100
AcDbEntity
  8
0
  6
Continuous
370
    25
100
AcDbLine
 10
3.783367
 20
181.368038
 30
0.0
 11
31.0
 21
181.368038
 31
0.0
  0
LINE
  5
57BC
330
577D
100
AcDbEntity
  8
0
  6
Continuous
370
    25
100
AcDbLine
 10
3.0
 20
181.368038
 30
0.0
 11
3.783367
 21
181.368038
 31
0.0
  0
ARC
  5
57BD
330
577D
100
AcDbEntity
  8
0
  6
Continuous
370
    25
100
AcDbCircle
 10
22.591499
 20
167.868038
 30
0.0
 40
8.994202987707906
100
AcDbArc
 50
341.08461
 51
18.91539
  0
LWPOLYLINE
  5
57BE
330
577D
100
AcDbEntity
  8
0
  6
Continuous
370
    25
100
AcDbPolyline
 90
       11
 70
   128
 43
0.0
 10
31.546298
 20
170.328867
 10
31.552738
 20
170.321935
 10
31.680353
 20
170.054153
 10
31.787353
 20
169.572379
 10
31.863263
 20
168.923773
 10
31.900655
 20
168.171823
 10
31.895866
 20
167.390137
 10
31.849366
 20
166.655231
 10
31.765707
 20
166.039044
 10
31.653078
 20
165.60189
 10
31.546298
 20
165.407209
  0
LINE
  5
57BF
330
577D
100
AcDbEntity
  8
0
  6
Continuous
370
    25
100
AcDbLine
 10
31.0
 20
2.868038
 30
0.0
 11
3.0
 21
2.868038
 31
0.0
  0
ARC
  5
57C0
330
577D
100
AcDbEntity
  8
0
  6
Continuous
370
    25
100
AcDbCircle
 10
19.969018
 20
0.733102
 30
0.0
 40
0.7328276735092967
100
AcDbArc
 50
256.360455
 51
289.915638
  0
ARC
  5
57C1
330
577D
100
AcDbEntity
  8
0
  6
Continuous
370
    25
100
AcDbCircle
 10
18.859403
 20
20.970049
 30
0.0
 40
20.97004614218033
100
AcDbArc
 50
266.28358
 51
273.71642
  0
ARC
  5
57C2
330
577D
100
AcDbEntity
  8
0
  6
Continuous
370
    25
100
AcDbCircle
 10
15.890837
 20
29.385897
 30
0.0
 40
29.38589622334574
100
AcDbArc
 50
266.860618
 51
273.139382
  0
ARC
  5
57C3
330
577D
100
AcDbEntity
  8
0
  6
Continuous
370
    25
100
AcDbCircle
 10
14.03097
 20
0.736005
 30
0.0
 40
0.7358691991386916
100
AcDbArc
 50
265.109227
 51
289.90578
  0
ARC
  5
57C4
330
577D
100
AcDbEntity
  8
0
  6
Continuous
370
    25
100
AcDbCircle
 10
15.140593
 20
20.964445
 30
0.0
 40
20.96444470754572
100
AcDbArc
 50
267.438873
 51
270.938889
  0
ARC
  5
57C5
330
577D
100
AcDbEntity
  8
0
  6
Continuous
370
    25
100
AcDbCircle
 10
18.109161
 20
29.383903
 30
0.0
 40
29.38390280199799
100
AcDbArc
 50
267.836728
 51
270.793095
  0
LINE
  5
57C6
330
577D
100
AcDbEntity
  8
0
  6
Continuous
370
    25
100
AcDbLine
 10
2.9
 20
94.368038
 30
0.0
 11
31.1
 21
94.368038
 31
0.0
  0
LINE
  5
57C7
330
577D
100
AcDbEntity
  8
0
  6
Continuous
370
    25
100
AcDbLine
 10
2.9
 20
179.368038
 30
0.0
 11
31.1
 21
179.368038
 31
0.0
  0
LINE
  5
57C8
330
577D
100
AcDbEntity
  8
0
  6
Continuous
370
    25
100
AcDbLine
 10
33.891099
 20
179.368038
 30
0.0
 11
33.891099
 21
94.368038
 31
0.0
  0
LINE
  5
57C9
330
577D
100
AcDbEntity
  8
0
  6
Continuous
370
    25
100
AcDbLine
 10
31.1
 20
179.368038
 30
0.0
 11
33.891099
 21
179.368038
 31
0.0
  0
LINE
  5
57CA
330
577D
100
AcDbEntity
  8
0
  6
Continuous
370
    25
100
AcDbLine
 10
31.1
 20
94.368038
 30
0.0
 11
33.891099
 21
94.368038
 31
0.0
  0
LINE
  5
57CB
330
577D
100
AcDbEntity
  8
0
  6
Continuous
370
    25
100
AcDbLine
 10
61.483844
 20
179.368038
 30
0.0
 11
61.483844
 21
94.368038
 31
0.0
  0
LINE
  5
57CC
330
577D
100
AcDbEntity
  8
0
  6
Continuous
370
    25
100
AcDbLine
 10
33.891099
 20
179.368038
 30
0.0
 11
61.483844
 21
179.368038
 31
0.0
  0
LINE
  5
57CD
330
577D
100
AcDbEntity
  8
0
  6
Continuous
370
    25
100
AcDbLine
 10
33.891099
 20
94.368038
 30
0.0
 11
61.483844
 21
94.368038
 31
0.0
  0
LINE
  5
57CE
330
577D
100
AcDbEntity
  8
0
  6
Continuous
370
    25
100
AcDbLine
 10
63.0
 20
179.368038
 30
0.0
 11
63.0
 21
94.368038
 31
0.0
  0
LINE
  5
57CF
330
577D
100
AcDbEntity
  8
0
  6
Continuous
370
    25
100
AcDbLine
 10
61.483844
 20
179.368038
 30
0.0
 11
63.0
 21
179.368038
 31
0.0
  0
LINE
  5
57D0
330
577D
100
AcDbEntity
  8
0
  6
Continuous
370
    25
100
AcDbLine
 10
61.483844
 20
94.368038
 30
0.0
 11
63.0
 21
94.368038
 31
0.0
  0
LINE
  5
57D1
330
577D
100
AcDbEntity
  8
0
  6
Continuous
370
    25
100
AcDbLine
 10
2.9
 20
4.868038
 30
0.0
 11
31.1
 21
4.868038
 31
0.0
  0
LINE
  5
57D2
330
577D
100
AcDbEntity
  8
0
  6
Continuous
370
    25
100
AcDbLine
 10
31.1
 20
89.868038
 30
0.0
 11
2.9
 21
89.868038
 31
0.0
  0
LINE
  5
57D3
330
577D
100
AcDbEntity
  8
0
  6
Continuous
370
    25
100
AcDbLine
 10
0.0
 20
89.868038
 30
0.0
 11
0.0
 21
4.868038
 31
0.0
  0
LINE
  5
57D4
330
577D
100
AcDbEntity
  8
0
  6
Continuous
370
    25
100
AcDbLine
 10
2.9
 20
89.868038
 30
0.0
 11
0.0
 21
89.868038
 31
0.0
  0
LINE
  5
57D5
330
577D
100
AcDbEntity
  8
0
  6
Continuous
370
    25
100
AcDbLine
 10
2.9
 20
4.868038
 30
0.0
 11
0.0
 21
4.868038
 31
0.0
  0
LINE
  5
57D6
330
577D
100
AcDbEntity
  8
0
  6
Continuous
370
    25
100
AcDbLine
 10
3.0
 20
93.968038
 30
0.0
 11
31.0
 21
93.968038
 31
0.0
  0
LINE
  5
57D7
330
577D
100
AcDbEntity
  8
0
  6
Continuous
370
    25
100
AcDbLine
 10
3.0
 20
90.168038
 30
0.0
 11
31.0
 21
90.168038
 31
0.0
  0
ENDBLK
  5
57D9
330
577D
100
AcDbEntity
  8
0
100
AcDbBlockEnd
  0
BLOCK
  5
5A74
330
59AE
100
AcDbEntity
  8
0
100
AcDbBlockBegin
  2
Appunti31283
 70
     0
 10
0.0
 20
0.0
 30
0.0
  3
Appunti31283
  1
Appunti31283
  0
LINE
  5
59D1
330
59AE
100
AcDbEntity
  8
0
  6
Continuous
370
    25
100
AcDbLine
 10
46.2
 20
168.868038
 30
0.0
 11
39.2
 21
168.868038
 31
0.0
  0
LINE
  5
59D2
330
59AE
100
AcDbEntity
  8
0
  6
Continuous
370
    25
100
AcDbLine
 10
39.2
 20
149.868038
 30
0.0
 11
46.2
 21
149.868038
 31
0.0
  0
LINE
  5
59D3
330
59AE
100
AcDbEntity
  8
0
  6
Continuous
370
    25
100
AcDbLine
 10
46.2
 20
123.868038
 30
0.0
 11
39.2
 21
123.868038
 31
0.0
  0
LINE
  5
59D4
330
59AE
100
AcDbEntity
  8
0
  6
Continuous
370
    25
100
AcDbLine
 10
39.2
 20
104.868038
 30
0.0
 11
46.2
 21
104.868038
 31
0.0
  0
LINE
  5
59D5
330
59AE
100
AcDbEntity
  8
0
  6
Continuous
370
    25
100
AcDbLine
 10
49.2
 20
162.368038
 30
0.0
 11
46.7
 21
162.368038
 31
0.0
  0
LINE
  5
59D6
330
59AE
100
AcDbEntity
  8
0
  6
Continuous
370
    25
100
AcDbLine
 10
46.7
 20
156.368038
 30
0.0
 11
49.2
 21
156.368038
 31
0.0
  0
LINE
  5
59D7
330
59AE
100
AcDbEntity
  8
0
  6
Continuous
370
    25
100
AcDbLine
 10
49.2
 20
117.368038
 30
0.0
 11
46.7
 21
117.368038
 31
0.0
  0
LINE
  5
59D8
330
59AE
100
AcDbEntity
  8
0
  6
Continuous
370
    25
100
AcDbLine
 10
46.7
 20
111.368038
 30
0.0
 11
49.2
 21
111.368038
 31
0.0
  0
ARC
  5
59D9
330
59AE
100
AcDbEntity
  8
0
  6
Continuous
370
    25
100
AcDbCircle
 10
14.1
 20
150.201371
 30
0.0
 40
34.16666666666679
100
AcDbArc
 50
65.810486
 51
114.189514
  0
LINE
  5
59DA
330
59AE
100
AcDbEntity
  8
0
  6
Continuous
370
    25
100
AcDbLine
 10
0.1
 20
181.368038
 30
0.0
 11
0.1
 21
179.368038
 31
0.0
  0
LINE
  5
59DB
330
59AE
100
AcDbEntity
  8
0
  6
Continuous
370
    25
100
AcDbLine
 10
28.1
 20
179.368038
 30
0.0
 11
28.1
 21
181.368038
 31
0.0
  0
LINE
  5
59DC
330
59AE
100
AcDbEntity
  8
0
  6
Continuous
370
    25
100
AcDbLine
 10
16.564583
 20
170.868038
 30
0.0
 11
16.548439
 21
170.868038
 31
0.0
  0
LINE
  5
59DD
330
59AE
100
AcDbEntity
  8
0
  6
Continuous
370
    25
100
AcDbLine
 10
16.548439
 20
164.868038
 30
0.0
 11
16.564583
 21
164.868038
 31
0.0
  0
ARC
  5
59DE
330
59AE
100
AcDbEntity
  8
0
  6
Continuous
370
    25
100
AcDbCircle
 10
14.1
 20
34.034704
 30
0.0
 40
34.16666666666675
100
AcDbArc
 50
275.422597
 51
294.189514
  0
ARC
  5
59DF
330
59AE
100
AcDbEntity
  8
0
  6
Continuous
370
    25
100
AcDbCircle
 10
14.1
 20
34.034704
 30
0.0
 40
34.16666666666671
100
AcDbArc
 50
245.810486
 51
264.577403
  0
LINE
  5
59E0
330
59AE
100
AcDbEntity
  8
0
  6
Continuous
370
    25
100
AcDbLine
 10
28.1
 20
2.868038
 30
0.0
 11
28.1
 21
4.868038
 31
0.0
  0
LINE
  5
59E1
330
59AE
100
AcDbEntity
  8
0
  6
Continuous
370
    25
100
AcDbLine
 10
0.1
 20
4.868038
 30
0.0
 11
0.1
 21
2.868038
 31
0.0
  0
LINE
  5
59E2
330
59AE
100
AcDbEntity
  8
0
  6
Continuous
370
    25
100
AcDbLine
 10
1.7
 20
90.168038
 30
0.0
 11
1.7
 21
89.868038
 31
0.0
  0
LINE
  5
59E3
330
59AE
100
AcDbEntity
  8
0
  6
Continuous
370
    25
100
AcDbLine
 10
46.2
 20
151.968038
 30
0.0
 11
46.7
 21
152.468038
 31
0.0
  0
LINE
  5
59E4
330
59AE
100
AcDbEntity
  8
0
  6
Continuous
370
    25
100
AcDbLine
 10
46.7
 20
166.268038
 30
0.0
 11
46.2
 21
166.768038
 31
0.0
  0
LINE
  5
59E5
330
59AE
100
AcDbEntity
  8
0
  6
Continuous
370
    25
100
AcDbLine
 10
46.2
 20
106.968038
 30
0.0
 11
46.7
 21
107.468038
 31
0.0
  0
LINE
  5
59E6
330
59AE
100
AcDbEntity
  8
0
  6
Continuous
370
    25
100
AcDbLine
 10
46.7
 20
121.268038
 30
0.0
 11
46.2
 21
121.768038
 31
0.0
  0
LINE
  5
59E7
330
59AE
100
AcDbEntity
  8
0
  6
Continuous
370
    25
100
AcDbLine
 10
0.0
 20
179.368038
 30
0.0
 11
0.0
 21
94.368038
 31
0.0
  0
LINE
  5
59E8
330
59AE
100
AcDbEntity
  8
0
  6
Continuous
370
    25
100
AcDbLine
 10
0.0
 20
89.868038
 30
0.0
 11
0.0
 21
4.868038
 31
0.0
  0
LINE
  5
59E9
330
59AE
100
AcDbEntity
  8
0
  6
Continuous
370
    25
100
AcDbLine
 10
0.1
 20
93.968038
 30
0.0
 11
0.1
 21
90.168038
 31
0.0
  0
LINE
  5
59EA
330
59AE
100
AcDbEntity
  8
0
  6
Continuous
370
    25
100
AcDbLine
 10
28.1
 20
90.168038
 30
0.0
 11
28.1
 21
93.968038
 31
0.0
  0
LINE
  5
59EB
330
59AE
100
AcDbEntity
  8
0
  6
Continuous
370
    25
100
AcDbLine
 10
1.3
 20
94.368038
 30
0.0
 11
1.3
 21
93.968038
 31
0.0
  0
LINE
  5
59EC
330
59AE
100
AcDbEntity
  8
0
  6
Continuous
370
    25
100
AcDbLine
 10
26.9
 20
93.968038
 30
0.0
 11
26.9
 21
94.368038
 31
0.0
  0
LINE
  5
59ED
330
59AE
100
AcDbEntity
  8
0
  6
Continuous
370
    25
100
AcDbLine
 10
49.8
 20
14.718038
 30
0.0
 11
49.8
 21
80.018038
 31
0.0
  0
LINE
  5
59EE
330
59AE
100
AcDbEntity
  8
0
  6
Continuous
370
    25
100
AcDbLine
 10
49.8
 20
80.018038
 30
0.0
 11
50.0
 21
80.018038
 31
0.0
  0
LINE
  5
59EF
330
59AE
100
AcDbEntity
  8
0
  6
Continuous
370
    25
100
AcDbLine
 10
50.0
 20
80.018038
 30
0.0
 11
50.0
 21
14.718038
 31
0.0
  0
LINE
  5
59F0
330
59AE
100
AcDbEntity
  8
0
  6
Continuous
370
    25
100
AcDbLine
 10
49.8
 20
14.718038
 30
0.0
 11
50.0
 21
14.718038
 31
0.0
  0
ARC
  5
59F1
330
59AE
100
AcDbEntity
  8
0
  6
Continuous
370
    25
100
AcDbCircle
 10
43.9
 20
14.718038
 30
0.0
 40
5.900000000000006
100
AcDbArc
 50
180.0
 51
0.0
  0
LINE
  5
59F2
330
59AE
100
AcDbEntity
  8
0
  6
Continuous
370
    25
100
AcDbLine
 10
38.0
 20
80.018038
 30
0.0
 11
38.0
 21
14.718038
 31
0.0
  0
ARC
  5
59F3
330
59AE
100
AcDbEntity
  8
0
  6
Continuous
370
    25
100
AcDbCircle
 10
43.9
 20
80.018038
 30
0.0
 40
5.900000000000006
100
AcDbArc
 50
0.0
 51
180.0
  0
ARC
  5
59F4
330
59AE
100
AcDbEntity
  8
0
  6
Continuous
370
    25
100
AcDbCircle
 10
43.9
 20
14.718038
 30
0.0
 40
6.100000000000001
100
AcDbArc
 50
180.0
 51
0.0
  0
LINE
  5
59F5
330
59AE
100
AcDbEntity
  8
0
  6
Continuous
370
    25
100
AcDbLine
 10
37.8
 20
14.718038
 30
0.0
 11
38.0
 21
14.718038
 31
0.0
  0
ARC
  5
59F6
330
59AE
100
AcDbEntity
  8
0
  6
Continuous
370
    25
100
AcDbCircle
 10
43.9
 20
80.018038
 30
0.0
 40
6.099999999999994
100
AcDbArc
 50
0.0
 51
180.0
  0
LINE
  5
59F7
330
59AE
100
AcDbEntity
  8
0
  6
Continuous
370
    25
100
AcDbLine
 10
37.8
 20
80.018038
 30
0.0
 11
38.0
 21
80.018038
 31
0.0
  0
LINE
  5
59F8
330
59AE
100
AcDbEntity
  8
0
  6
Continuous
370
    25
100
AcDbLine
 10
37.8
 20
14.718038
 30
0.0
 11
37.8
 21
80.018038
 31
0.0
  0
LINE
  5
59F9
330
59AE
100
AcDbEntity
  8
0
  6
Continuous
370
    25
100
AcDbLine
 10
46.2
 20
155.729072
 30
0.0
 11
46.2
 21
149.868038
 31
0.0
  0
LINE
  5
59FA
330
59AE
100
AcDbEntity
  8
0
  6
Continuous
370
    25
100
AcDbLine
 10
46.2
 20
168.868038
 30
0.0
 11
46.2
 21
155.729072
 31
0.0
  0
LINE
  5
59FB
330
59AE
100
AcDbEntity
  8
0
  6
Continuous
370
    25
100
AcDbLine
 10
46.2
 20
110.729072
 30
0.0
 11
46.2
 21
104.868038
 31
0.0
  0
LINE
  5
59FC
330
59AE
100
AcDbEntity
  8
0
  6
Continuous
370
    25
100
AcDbLine
 10
46.2
 20
123.868038
 30
0.0
 11
46.2
 21
110.729072
 31
0.0
  0
LINE
  5
59FD
330
59AE
100
AcDbEntity
  8
0
  6
Continuous
370
    25
100
AcDbLine
 10
54.4
 20
95.318038
 30
0.0
 11
54.4
 21
178.418038
 31
0.0
  0
LINE
  5
59FE
330
59AE
100
AcDbEntity
  8
0
  6
Continuous
370
    25
100
AcDbLine
 10
54.4
 20
178.418038
 30
0.0
 11
56.23303
 21
178.418038
 31
0.0
  0
ARC
  5
59FF
330
59AE
100
AcDbEntity
  8
0
  6
Continuous
370
    25
100
AcDbCircle
 10
54.4
 20
177.618038
 30
0.0
 40
2.0
100
AcDbArc
 50
0.0
 51
23.578178
  0
LINE
  5
5A00
330
59AE
100
AcDbEntity
  8
0
  6
Continuous
370
    25
100
AcDbLine
 10
56.4
 20
177.618038
 30
0.0
 11
56.4
 21
96.118038
 31
0.0
  0
ARC
  5
5A01
330
59AE
100
AcDbEntity
  8
0
  6
Continuous
370
    25
100
AcDbCircle
 10
54.4
 20
96.118038
 30
0.0
 40
1.999999999999986
100
AcDbArc
 50
336.421822
 51
0.0
  0
LINE
  5
5A02
330
59AE
100
AcDbEntity
  8
0
  6
Continuous
370
    25
100
AcDbLine
 10
56.23303
 20
95.318038
 30
0.0
 11
54.4
 21
95.318038
 31
0.0
  0
LINE
  5
5A03
330
59AE
100
AcDbEntity
  8
0
  6
Continuous
370
    25
100
AcDbLine
 10
49.2
 20
95.318038
 30
0.0
 11
49.2
 21
178.418038
 31
0.0
  0
LINE
  5
5A04
330
59AE
100
AcDbEntity
  8
0
  6
Continuous
370
    25
100
AcDbLine
 10
54.4
 20
95.318038
 30
0.0
 11
49.2
 21
95.318038
 31
0.0
  0
LINE
  5
5A05
330
59AE
100
AcDbEntity
  8
0
  6
Continuous
370
    25
100
AcDbLine
 10
54.4
 20
178.418038
 30
0.0
 11
49.2
 21
178.418038
 31
0.0
  0
ARC
  5
5A06
330
59AE
100
AcDbEntity
  8
0
  6
Continuous
370
    25
100
AcDbCircle
 10
54.9
 20
178.118038
 30
0.0
 40
0.5
100
AcDbArc
 50
36.869898
 51
90.0
  0
LINE
  5
5A07
330
59AE
100
AcDbEntity
  8
0
  6
Continuous
370
    25
100
AcDbLine
 10
49.2
 20
178.618038
 30
0.0
 11
54.9
 21
178.618038
 31
0.0
  0
LINE
  5
5A08
330
59AE
100
AcDbEntity
  8
0
  6
Continuous
370
    25
100
AcDbLine
 10
49.2
 20
179.618038
 30
0.0
 11
49.2
 21
178.618038
 31
0.0
  0
LINE
  5
5A09
330
59AE
100
AcDbEntity
  8
0
  6
Continuous
370
    25
100
AcDbLine
 10
54.4
 20
179.618038
 30
0.0
 11
49.2
 21
179.618038
 31
0.0
  0
ARC
  5
5A0A
330
59AE
100
AcDbEntity
  8
0
  6
Continuous
370
    25
100
AcDbCircle
 10
54.4
 20
177.618038
 30
0.0
 40
2.0
100
AcDbArc
 50
23.578178
 51
90.0
  0
LINE
  5
5A0B
330
59AE
100
AcDbEntity
  8
0
  6
Continuous
370
    25
100
AcDbLine
 10
54.4
 20
94.118038
 30
0.0
 11
49.2
 21
94.118038
 31
0.0
  0
LINE
  5
5A0C
330
59AE
100
AcDbEntity
  8
0
  6
Continuous
370
    25
100
AcDbLine
 10
49.2
 20
95.118038
 30
0.0
 11
49.2
 21
94.118038
 31
0.0
  0
LINE
  5
5A0D
330
59AE
100
AcDbEntity
  8
0
  6
Continuous
370
    25
100
AcDbLine
 10
54.9
 20
95.118038
 30
0.0
 11
49.2
 21
95.118038
 31
0.0
  0
ARC
  5
5A0E
330
59AE
100
AcDbEntity
  8
0
  6
Continuous
370
    25
100
AcDbCircle
 10
54.9
 20
95.618038
 30
0.0
 40
0.5
100
AcDbArc
 50
270.0
 51
323.130102
  0
ARC
  5
5A0F
330
59AE
100
AcDbEntity
  8
0
  6
Continuous
370
    25
100
AcDbCircle
 10
54.4
 20
96.118038
 30
0.0
 40
2.0
100
AcDbArc
 50
270.0
 51
336.421822
  0
LINE
  5
5A10
330
59AE
100
AcDbEntity
  8
0
  6
Continuous
370
    25
100
AcDbLine
 10
38.7
 20
97.368038
 30
0.0
 11
39.2
 21
97.368038
 31
0.0
  0
LINE
  5
5A11
330
59AE
100
AcDbEntity
  8
0
  6
Continuous
370
    25
100
AcDbLine
 10
38.7
 20
176.368038
 30
0.0
 11
39.2
 21
176.368038
 31
0.0
  0
LINE
  5
5A12
330
59AE
100
AcDbEntity
  8
0
  6
Continuous
370
    25
100
AcDbLine
 10
39.2
 20
97.368038
 30
0.0
 11
39.2
 21
176.368038
 31
0.0
  0
LINE
  5
5A13
330
59AE
100
AcDbEntity
  8
0
  6
Continuous
370
    25
100
AcDbLine
 10
38.7
 20
95.368038
 30
0.0
 11
39.2
 21
95.368038
 31
0.0
  0
LINE
  5
5A14
330
59AE
100
AcDbEntity
  8
0
  6
Continuous
370
    25
100
AcDbLine
 10
39.2
 20
95.368038
 30
0.0
 11
39.2
 21
97.368038
 31
0.0
  0
LINE
  5
5A15
330
59AE
100
AcDbEntity
  8
0
  6
Continuous
370
    25
100
AcDbLine
 10
38.7
 20
178.368038
 30
0.0
 11
39.2
 21
178.368038
 31
0.0
  0
LINE
  5
5A16
330
59AE
100
AcDbEntity
  8
0
  6
Continuous
370
    25
100
AcDbLine
 10
39.2
 20
176.368038
 30
0.0
 11
39.2
 21
178.368038
 31
0.0
  0
LINE
  5
5A17
330
59AE
100
AcDbEntity
  8
0
  6
Continuous
370
    25
100
AcDbLine
 10
0.1
 20
181.368038
 30
0.0
 11
28.1
 21
181.368038
 31
0.0
  0
CIRCLE
  5
5A18
330
59AE
100
AcDbEntity
  8
0
  6
Continuous
370
    25
100
AcDbCircle
 10
16.627444
 20
167.839566
 30
0.0
 40
2.477859399005137
  0
CIRCLE
  5
5A19
330
59AE
100
AcDbEntity
  8
0
  6
Continuous
370
    25
100
AcDbCircle
 10
16.535578
 20
167.833772
 30
0.0
 40
2.973548434562815
  0
ARC
  5
5A1A
330
59AE
100
AcDbEntity
  8
0
  6
Continuous
370
    25
100
AcDbCircle
 10
16.652405
 20
167.908079
 30
0.0
 40
1.509995771256317
100
AcDbArc
 50
92.492303
 51
122.042825
  0
LINE
  5
5A1B
330
59AE
100
AcDbEntity
  8
0
  6
Continuous
370
    25
100
AcDbLine
 10
15.851272
 20
169.18803
 30
0.0
 11
15.403494
 21
169.04884
 31
0.0
  0
LINE
  5
5A1C
330
59AE
100
AcDbEntity
  8
0
  6
Continuous
370
    25
100
AcDbLine
 10
15.403494
 20
169.04884
 30
0.0
 11
15.298315
 21
168.585477
 31
0.0
  0
ARC
  5
5A1D
330
59AE
100
AcDbEntity
  8
0
  6
Continuous
370
    25
100
AcDbCircle
 10
16.694463
 20
167.868424
 30
0.0
 40
1.569520036424338
100
AcDbArc
 50
152.815241
 51
181.60707
  0
LINE
  5
5A1E
330
59AE
100
AcDbEntity
  8
0
  6
Continuous
370
    25
100
AcDbLine
 10
15.12556
 20
167.824406
 30
0.0
 11
15.020382
 21
167.361043
 31
0.0
  0
LINE
  5
5A1F
330
59AE
100
AcDbEntity
  8
0
  6
Continuous
370
    25
100
AcDbLine
 10
15.020382
 20
167.361043
 30
0.0
 11
15.362981
 21
167.036868
 31
0.0
  0
ARC
  5
5A20
330
59AE
100
AcDbEntity
  8
0
  6
Continuous
370
    25
100
AcDbCircle
 10
16.665929
 20
167.850294
 30
0.0
 40
1.536013409750194
100
AcDbArc
 50
211.976389
 51
241.189222
  0
LINE
  5
5A21
330
59AE
100
AcDbEntity
  8
0
  6
Continuous
370
    25
100
AcDbLine
 10
15.925696
 20
166.504415
 30
0.0
 11
16.268295
 21
166.18024
 31
0.0
  0
LINE
  5
5A22
330
59AE
100
AcDbEntity
  8
0
  6
Continuous
370
    25
100
AcDbLine
 10
16.268295
 20
166.18024
 30
0.0
 11
16.716073
 21
166.319429
 31
0.0
  0
ARC
  5
5A23
330
59AE
100
AcDbEntity
  8
0
  6
Continuous
370
    25
100
AcDbCircle
 10
16.65041
 20
167.827997
 30
0.0
 40
1.509995771257285
100
AcDbArc
 50
272.492303
 51
302.042825
  0
LINE
  5
5A24
330
59AE
100
AcDbEntity
  8
0
  6
Continuous
370
    25
100
AcDbLine
 10
17.451543
 20
166.548046
 30
0.0
 11
17.899321
 21
166.687235
 31
0.0
  0
LINE
  5
5A25
330
59AE
100
AcDbEntity
  8
0
  6
Continuous
370
    25
100
AcDbLine
 10
17.899321
 20
166.687235
 30
0.0
 11
18.0045
 21
167.150599
 31
0.0
  0
ARC
  5
5A26
330
59AE
100
AcDbEntity
  8
0
  6
Continuous
370
    25
100
AcDbCircle
 10
16.608352
 20
167.867652
 30
0.0
 40
1.569520036424668
100
AcDbArc
 50
332.815241
 51
1.60707
  0
LINE
  5
5A27
330
59AE
100
AcDbEntity
  8
0
  6
Continuous
370
    25
100
AcDbLine
 10
18.177255
 20
167.911669
 30
0.0
 11
18.282433
 21
168.375033
 31
0.0
  0
LINE
  5
5A28
330
59AE
100
AcDbEntity
  8
0
  6
Continuous
370
    25
100
AcDbLine
 10
18.282433
 20
168.375033
 30
0.0
 11
17.939834
 21
168.699208
 31
0.0
  0
ARC
  5
5A29
330
59AE
100
AcDbEntity
  8
0
  6
Continuous
370
    25
100
AcDbCircle
 10
16.636886
 20
167.885781
 30
0.0
 40
1.536013409750224
100
AcDbArc
 50
31.976389
 51
61.189222
  0
LINE
  5
5A2A
330
59AE
100
AcDbEntity
  8
0
  6
Continuous
370
    25
100
AcDbLine
 10
17.377119
 20
169.231661
 30
0.0
 11
17.03452
 21
169.555836
 31
0.0
  0
LINE
  5
5A2B
330
59AE
100
AcDbEntity
  8
0
  6
Continuous
370
    25
100
AcDbLine
 10
17.03452
 20
169.555836
 30
0.0
 11
16.586742
 21
169.416646
 31
0.0
  0
ARC
  5
5A2C
330
59AE
100
AcDbEntity
  8
0
  6
Continuous
370
    25
100
AcDbCircle
 10
15.756951
 20
167.867472
 30
0.0
 40
1.556203796299219
100
AcDbArc
 50
317.26133
 51
72.794062
  0
LWPOLYLINE
  5
5A2D
330
59AE
100
AcDbEntity
  8
0
  6
Continuous
370
    25
100
AcDbPolyline
 90
        3
 70
   128
 43
0.0
 10
16.089369
 20
166.349544
 10
16.416673
 20
166.457828
 10
16.899915
 20
166.811346
  0
ARC
  5
5A2E
330
59AE
100
AcDbEntity
  8
0
  6
Continuous
370
    25
100
AcDbCircle
 10
15.916251
 20
167.868998
 30
0.0
 40
1.566991881284466
100
AcDbArc
 50
1.560423
 51
31.992678
  0
LINE
  5
5A2F
330
59AE
100
AcDbEntity
  8
0
  6
Continuous
370
    25
100
AcDbLine
 10
17.482662
 20
167.911669
 30
0.0
 11
18.177255
 21
167.911669
 31
0.0
  0
LINE
  5
5A30
330
59AE
100
AcDbEntity
  8
0
  6
Continuous
370
    25
100
AcDbLine
 10
18.0045
 20
167.150599
 30
0.0
 11
17.309907
 21
167.150599
 31
0.0
  0
ARC
  5
5A31
330
59AE
100
AcDbEntity
  8
0
  6
Continuous
370
    25
100
AcDbCircle
 10
15.938862
 20
167.853795
 30
0.0
 40
1.540859404470609
100
AcDbArc
 50
302.068296
 51
332.847149
  0
LINE
  5
5A32
330
59AE
100
AcDbEntity
  8
0
  6
Continuous
370
    25
100
AcDbLine
 10
16.75695
 20
166.548046
 30
0.0
 11
17.451543
 21
166.548046
 31
0.0
  0
LINE
  5
5A33
330
59AE
100
AcDbEntity
  8
0
  6
Continuous
370
    25
100
AcDbLine
 10
16.716073
 20
166.319429
 30
0.0
 11
16.121195
 21
166.319429
 31
0.0
  0
ARC
  5
5A34
330
59AE
100
AcDbEntity
  8
0
  6
Continuous
370
    25
100
AcDbCircle
 10
15.954772
 20
167.906048
 30
0.0
 40
1.512242279348878
100
AcDbArc
 50
61.233442
 51
76.643603
  0
LINE
  5
5A35
330
59AE
100
AcDbEntity
  8
0
  6
Continuous
370
    25
100
AcDbLine
 10
16.682526
 20
169.231661
 30
0.0
 11
17.377119
 21
169.231661
 31
0.0
  0
LINE
  5
5A36
330
59AE
100
AcDbEntity
  8
0
  6
Continuous
370
    25
100
AcDbLine
 10
17.939834
 20
168.699208
 30
0.0
 11
17.245242
 21
168.699208
 31
0.0
  0
LINE
  5
5A37
330
59AE
100
AcDbEntity
  8
0
  6
Continuous
370
    25
100
AcDbLine
 10
16.682526
 20
169.231661
 30
0.0
 11
16.494261
 21
169.409802
 31
0.0
  0
LINE
  5
5A38
330
59AE
100
AcDbEntity
  8
0
  6
Continuous
370
    25
100
AcDbLine
 10
16.75695
 20
166.548046
 30
0.0
 11
17.204728
 21
166.687235
 31
0.0
  0
LINE
  5
5A39
330
59AE
100
AcDbEntity
  8
0
  6
Continuous
370
    25
100
AcDbLine
 10
17.204728
 20
166.687235
 30
0.0
 11
17.899321
 21
166.687235
 31
0.0
  0
LINE
  5
5A3A
330
59AE
100
AcDbEntity
  8
0
  6
Continuous
370
    25
100
AcDbLine
 10
17.204728
 20
166.687235
 30
0.0
 11
17.309907
 21
167.150599
 31
0.0
  0
LINE
  5
5A3B
330
59AE
100
AcDbEntity
  8
0
  6
Continuous
370
    25
100
AcDbLine
 10
17.587841
 20
168.375033
 30
0.0
 11
18.282433
 21
168.375033
 31
0.0
  0
LINE
  5
5A3C
330
59AE
100
AcDbEntity
  8
0
  6
Continuous
370
    25
100
AcDbLine
 10
17.587841
 20
168.375033
 30
0.0
 11
17.245242
 21
168.699208
 31
0.0
  0
LINE
  5
5A3D
330
59AE
100
AcDbEntity
  8
0
  6
Continuous
370
    25
100
AcDbLine
 10
17.482662
 20
167.911669
 30
0.0
 11
17.587841
 21
168.375033
 31
0.0
  0
LINE
  5
5A3E
330
59AE
100
AcDbEntity
  8
0
  6
Continuous
370
    25
100
AcDbLine
 10
28.1
 20
2.868038
 30
0.0
 11
0.1
 21
2.868038
 31
0.0
  0
ARC
  5
5A3F
330
59AE
100
AcDbEntity
  8
0
  6
Continuous
370
    25
100
AcDbCircle
 10
14.533151
 20
33.325731
 30
0.0
 40
33.32573057496825
100
AcDbArc
 50
267.052047
 51
272.947953
  0
ARC
  5
5A40
330
59AE
100
AcDbEntity
  8
0
  6
Continuous
370
    25
100
AcDbCircle
 10
11.745723
 20
13.090382
 30
0.0
 40
13.09037408754834
100
AcDbArc
 50
265.295956
 51
274.704044
  0
ARC
  5
5A41
330
59AE
100
AcDbEntity
  8
0
  6
Continuous
370
    25
100
AcDbCircle
 10
11.312731
 20
4.675684
 30
0.0
 40
4.675665478396113
100
AcDbArc
 50
262.126095
 51
271.981639
  0
ARC
  5
5A42
330
59AE
100
AcDbEntity
  8
0
  6
Continuous
370
    25
100
AcDbCircle
 10
13.666849
 20
33.325427
 30
0.0
 40
33.32542655592229
100
AcDbArc
 50
267.968691
 51
270.74473
  0
ARC
  5
5A43
330
59AE
100
AcDbEntity
  8
0
  6
Continuous
370
    25
100
AcDbCircle
 10
16.454269
 20
13.081398
 30
0.0
 40
13.08139671056432
100
AcDbArc
 50
266.757646
 51
271.188445
  0
ARC
  5
5A44
330
59AE
100
AcDbEntity
  8
0
  6
Continuous
370
    25
100
AcDbCircle
 10
16.887273
 20
4.673125
 30
0.0
 40
4.673087040550819
100
AcDbArc
 50
262.125631
 51
275.421344
  0
LINE
  5
5A45
330
59AE
100
AcDbEntity
  8
0
  6
Continuous
370
    25
100
AcDbLine
 10
26.468302
 20
89.868038
 30
0.0
 11
26.468302
 21
90.168038
 31
0.0
  0
LINE
  5
5A46
330
59AE
100
AcDbEntity
  8
0
  6
Continuous
370
    25
100
AcDbLine
 10
38.362571
 20
179.368038
 30
0.0
 11
38.362571
 21
94.368038
 31
0.0
  0
LINE
  5
5A47
330
59AE
100
AcDbEntity
  8
0
  6
Continuous
370
    25
100
AcDbLine
 10
38.362571
 20
179.368038
 30
0.0
 11
38.7
 21
179.368038
 31
0.0
  0
LINE
  5
5A48
330
59AE
100
AcDbEntity
  8
0
  6
Continuous
370
    25
100
AcDbLine
 10
38.362571
 20
94.368038
 30
0.0
 11
38.7
 21
94.368038
 31
0.0
  0
LINE
  5
5A49
330
59AE
100
AcDbEntity
  8
0
  6
Continuous
370
    25
100
AcDbLine
 10
38.7
 20
179.368038
 30
0.0
 11
38.7
 21
94.368038
 31
0.0
  0
LINE
  5
5A4A
330
59AE
100
AcDbEntity
  8
0
  6
Continuous
370
    25
100
AcDbLine
 10
36.42198
 20
179.368038
 30
0.0
 11
36.42198
 21
94.368038
 31
0.0
  0
LINE
  5
5A4B
330
59AE
100
AcDbEntity
  8
0
  6
Continuous
370
    25
100
AcDbLine
 10
36.42198
 20
179.368038
 30
0.0
 11
38.362571
 21
179.368038
 31
0.0
  0
LINE
  5
5A4C
330
59AE
100
AcDbEntity
  8
0
  6
Continuous
370
    25
100
AcDbLine
 10
36.42198
 20
94.368038
 30
0.0
 11
38.362571
 21
94.368038
 31
0.0
  0
LINE
  5
5A4D
330
59AE
100
AcDbEntity
  8
0
  6
Continuous
370
    25
100
AcDbLine
 10
29.542336
 20
179.368038
 30
0.0
 11
29.542336
 21
94.368038
 31
0.0
  0
LINE
  5
5A4E
330
59AE
100
AcDbEntity
  8
0
  6
Continuous
370
    25
100
AcDbLine
 10
29.542336
 20
179.368038
 30
0.0
 11
36.42198
 21
179.368038
 31
0.0
  0
LINE
  5
5A4F
330
59AE
100
AcDbEntity
  8
0
  6
Continuous
370
    25
100
AcDbLine
 10
29.542336
 20
94.368038
 30
0.0
 11
36.42198
 21
94.368038
 31
0.0
  0
LINE
  5
5A50
330
59AE
100
AcDbEntity
  8
0
  6
Continuous
370
    25
100
AcDbLine
 10
46.7
 20
159.368038
 30
0.0
 11
46.7
 21
152.468038
 31
0.0
  0
LINE
  5
5A51
330
59AE
100
AcDbEntity
  8
0
  6
Continuous
370
    25
100
AcDbLine
 10
46.7
 20
166.268038
 30
0.0
 11
46.7
 21
159.368038
 31
0.0
  0
LINE
  5
5A52
330
59AE
100
AcDbEntity
  8
0
  6
Continuous
370
    25
100
AcDbLine
 10
46.7
 20
114.368038
 30
0.0
 11
46.7
 21
107.468038
 31
0.0
  0
LINE
  5
5A53
330
59AE
100
AcDbEntity
  8
0
  6
Continuous
370
    25
100
AcDbLine
 10
46.7
 20
121.268038
 30
0.0
 11
46.7
 21
114.368038
 31
0.0
  0
LINE
  5
5A54
330
59AE
100
AcDbEntity
  8
0
  6
Continuous
370
    25
100
AcDbLine
 10
20.35288
 20
179.368038
 30
0.0
 11
20.35288
 21
94.368038
 31
0.0
  0
LINE
  5
5A55
330
59AE
100
AcDbEntity
  8
0
  6
Continuous
370
    25
100
AcDbLine
 10
20.35288
 20
179.368038
 30
0.0
 11
29.542336
 21
179.368038
 31
0.0
  0
LINE
  5
5A56
330
59AE
100
AcDbEntity
  8
0
  6
Continuous
370
    25
100
AcDbLine
 10
20.35288
 20
94.368038
 30
0.0
 11
29.542336
 21
94.368038
 31
0.0
  0
LINE
  5
5A57
330
59AE
100
AcDbEntity
  8
0
  6
Continuous
370
    25
100
AcDbLine
 10
0.0
 20
179.368038
 30
0.0
 11
20.35288
 21
179.368038
 31
0.0
  0
LINE
  5
5A58
330
59AE
100
AcDbEntity
  8
0
  6
Continuous
370
    25
100
AcDbLine
 10
0.0
 20
94.368038
 30
0.0
 11
20.35288
 21
94.368038
 31
0.0
  0
LINE
  5
5A59
330
59AE
100
AcDbEntity
  8
0
  6
Continuous
370
    25
100
AcDbLine
 10
27.117367
 20
89.868038
 30
0.0
 11
27.117367
 21
4.868038
 31
0.0
  0
LINE
  5
5A5A
330
59AE
100
AcDbEntity
  8
0
  6
Continuous
370
    25
100
AcDbLine
 10
27.117367
 20
89.868038
 30
0.0
 11
0.0
 21
89.868038
 31
0.0
  0
LINE
  5
5A5B
330
59AE
100
AcDbEntity
  8
0
  6
Continuous
370
    25
100
AcDbLine
 10
0.0
 20
4.868038
 30
0.0
 11
27.117367
 21
4.868038
 31
0.0
  0
LINE
  5
5A5C
330
59AE
100
AcDbEntity
  8
0
  6
Continuous
370
    25
100
AcDbLine
 10
32.220895
 20
89.868038
 30
0.0
 11
32.220895
 21
4.868038
 31
0.0
  0
LINE
  5
5A5D
330
59AE
100
AcDbEntity
  8
0
  6
Continuous
370
    25
100
AcDbLine
 10
27.117367
 20
89.868038
 30
0.0
 11
32.220895
 21
89.868038
 31
0.0
  0
LINE
  5
5A5E
330
59AE
100
AcDbEntity
  8
0
  6
Continuous
370
    25
100
AcDbLine
 10
27.117367
 20
4.868038
 30
0.0
 11
32.220895
 21
4.868038
 31
0.0
  0
LINE
  5
5A5F
330
59AE
100
AcDbEntity
  8
0
  6
Continuous
370
    25
100
AcDbLine
 10
37.6
 20
80.068038
 30
0.0
 11
37.6
 21
14.668038
 31
0.0
  0
SPLINE
  5
5A60
330
59AE
100
AcDbEntity
  8
0
  6
Continuous
370
    25
100
AcDbSpline
210
0.0
220
0.0
230
1.0
 70
     8
 71
     3
 72
    20
 73
    16
 74
     0
 42
0.000000001
 43
0.00000001
 40
0.0
 40
0.0
 40
0.0
 40
0.0
 40
0.25
 40
0.25
 40
0.375
 40
0.375
 40
0.5
 40
0.5
 40
0.625
 40
0.625
 40
0.75
 40
0.75
 40
0.875
 40
0.875
 40
1.0
 40
1.0
 40
1.0
 40
1.0
 10
37.60000000000002
 20
14.66803782886029
 30
0.0
 10
37.60000000000002
 20
14.04304363676863
 30
0.0
 10
37.69094087564361
 20
13.43552256595524
 30
0.0
 10
37.95914440327329
 20
12.54869546633321
 30
0.0
 10
38.07057598567451
 20
12.25950965079991
 30
0.0
 10
38.33075645136762
 20
11.70717332346283
 30
0.0
 10
38.48013354155717
 20
11.44180863405165
 30
0.0
 10
38.81806472475864
 20
10.93207194263405
 30
0.0
 10
39.00763672396249
 20
10.68708910303093
 30
0.0
 10
39.41540854785376
 20
10.23276887537619
 30
0.0
 10
39.63474546820873
 20
10.02140236436665
 30
0.0
 10
40.10509958535692
 20
9.629948091291283
 30
0.0
 10
40.35803570026508
 20
9.448750286766511
 30
0.0
 10
40.88860628177565
 20
9.125657345575945
 30
0.0
 10
41.16508552537005
 20
8.984032895930483
 30
0.0
 10
41.45307040722514
 20
8.862649334710909
 30
0.0
  0
LINE
  5
5A61
330
59AE
100
AcDbEntity
  8
0
  6
Continuous
370
    25
100
AcDbLine
 10
41.45307
 20
8.862649
 30
0.0
 11
41.45307
 21
4.868038
 31
0.0
  0
LINE
  5
5A62
330
59AE
100
AcDbEntity
  8
0
  6
Continuous
370
    25
100
AcDbLine
 10
41.45307
 20
89.868038
 30
0.0
 11
41.45307
 21
85.873426
 31
0.0
  0
SPLINE
  5
5A63
330
59AE
100
AcDbEntity
  8
0
  6
Continuous
370
    25
100
AcDbSpline
210
0.0
220
0.0
230
1.0
 70
     8
 71
     3
 72
    20
 73
    16
 74
     0
 42
0.000000001
 43
0.00000001
 40
0.0
 40
0.0
 40
0.0
 40
0.0
 40
0.2500000000000001
 40
0.2500000000000001
 40
0.375
 40
0.375
 40
0.5
 40
0.5
 40
0.625
 40
0.625
 40
0.75
 40
0.75
 40
0.8750000000000001
 40
0.8750000000000001
 40
1.0
 40
1.0
 40
1.0
 40
1.0
 10
41.45307040722514
 20
85.87342632300977
 30
0.0
 10
40.87685387588897
 20
85.63055518978695
 30
0.0
 10
40.35302132700508
 20
85.31107895202831
 30
0.0
 10
39.64078653022784
 20
84.72037434940455
 30
0.0
 10
39.41787055780833
 20
84.50577895145295
 30
0.0
 10
39.01013885771363
 20
84.05204192234089
 30
0.0
 10
38.82357977674883
 20
83.8115006233088
 30
0.0
 10
38.48481500117032
 20
83.30212617102154
 30
0.0
 10
38.33250232213265
 20
83.03220213198779
 30
0.0
 10
38.07185944701166
 20
82.479692469062
 30
0.0
 10
37.96207906171969
 20
82.19522217546432
 30
0.0
 10
37.78373064395441
 20
81.6091632222018
 30
0.0
 10
37.71488846046782
 20
81.3053874568077
 30
0.0
 10
37.62311959587964
 20
80.69046151944838
 30
0.0
 10
37.60000000000002
 20
80.38051995539854
 30
0.0
 10
37.60000000000002
 20
80.06803782886027
 30
0.0
  0
LINE
  5
5A64
330
59AE
100
AcDbEntity
  8
0
  6
Continuous
370
    25
100
AcDbLine
 10
41.45307
 20
89.868038
 30
0.0
 11
32.220895
 21
89.868038
 31
0.0
  0
LINE
  5
5A65
330
59AE
100
AcDbEntity
  8
0
  6
Continuous
370
    25
100
AcDbLine
 10
41.45307
 20
4.868038
 30
0.0
 11
32.220895
 21
4.868038
 31
0.0
  0
LINE
  5
5A66
330
59AE
100
AcDbEntity
  8
0
  6
Continuous
370
    25
100
AcDbLine
 10
50.2
 20
14.668038
 30
0.0
 11
50.2
 21
4.868038
 31
0.0
  0
LINE
  5
5A67
330
59AE
100
AcDbEntity
  8
0
  6
Continuous
370
    25
100
AcDbLine
 10
50.2
 20
80.068038
 30
0.0
 11
50.2
 21
14.668038
 31
0.0
  0
LINE
  5
5A68
330
59AE
100
AcDbEntity
  8
0
  6
Continuous
370
    25
100
AcDbLine
 10
50.2
 20
89.868038
 30
0.0
 11
50.2
 21
80.068038
 31
0.0
  0
LINE
  5
5A69
330
59AE
100
AcDbEntity
  8
0
  6
Continuous
370
    25
100
AcDbLine
 10
52.2
 20
89.868038
 30
0.0
 11
52.2
 21
4.868038
 31
0.0
  0
LINE
  5
5A6A
330
59AE
100
AcDbEntity
  8
0
  6
Continuous
370
    25
100
AcDbLine
 10
52.2
 20
89.868038
 30
0.0
 11
50.2
 21
89.868038
 31
0.0
  0
LINE
  5
5A6B
330
59AE
100
AcDbEntity
  8
0
  6
Continuous
370
    25
100
AcDbLine
 10
52.2
 20
4.868038
 30
0.0
 11
50.2
 21
4.868038
 31
0.0
  0
ARC
  5
5A6C
330
59AE
100
AcDbEntity
  8
0
  6
Continuous
370
    25
100
AcDbCircle
 10
43.9
 20
14.668038
 30
0.0
 40
6.299999999999989
100
AcDbArc
 50
247.144926
 51
0.0
  0
LINE
  5
5A6D
330
59AE
100
AcDbEntity
  8
0
  6
Continuous
370
    25
100
AcDbLine
 10
41.45307
 20
4.868038
 30
0.0
 11
50.2
 21
4.868038
 31
0.0
  0
ARC
  5
5A6E
330
59AE
100
AcDbEntity
  8
0
  6
Continuous
370
    25
100
AcDbCircle
 10
43.9
 20
80.068038
 30
0.0
 40
6.300000000000041
100
AcDbArc
 50
0.0
 51
112.855074
  0
LINE
  5
5A6F
330
59AE
100
AcDbEntity
  8
0
  6
Continuous
370
    25
100
AcDbLine
 10
41.45307
 20
89.868038
 30
0.0
 11
50.2
 21
89.868038
 31
0.0
  0
LINE
  5
5A70
330
59AE
100
AcDbEntity
  8
0
  6
Continuous
370
    25
100
AcDbLine
 10
0.1
 20
93.968038
 30
0.0
 11
28.1
 21
93.968038
 31
0.0
  0
LINE
  5
5A71
330
59AE
100
AcDbEntity
  8
0
  6
Continuous
370
    25
100
AcDbLine
 10
0.1
 20
90.168038
 30
0.0
 11
28.1
 21
90.168038
 31
0.0
  0
LINE
  5
5A72
330
59AE
100
AcDbEntity
  8
0
  6
Continuous
370
    25
100
AcDbLine
 10
49.999795
 20
80.068038
 30
0.0
 11
50.2
 21
80.068038
 31
0.0
  0
LINE
  5
5A73
330
59AE
100
AcDbEntity
  8
0
  6
Continuous
370
    25
100
AcDbLine
 10
49.999795
 20
14.668038
 30
0.0
 11
50.2
 21
14.668038
 31
0.0
  0
ENDBLK
  5
5A75
330
59AE
100
AcDbEntity
  8
0
100
AcDbBlockEnd
  0
BLOCK
  5
5B11
330
5A77
100
AcDbEntity
  8
0
100
AcDbBlockBegin
  2
Appunti31446
 70
     0
 10
0.0
 20
0.0
 30
0.0
  3
Appunti31446
  1
Appunti31446
  0
LINE
  5
5A9A
330
5A77
100
AcDbEntity
  8
0
  6
Continuous
370
    25
100
AcDbLine
 10
10.2
 20
149.868038
 30
0.0
 11
17.2
 21
149.868038
 31
0.0
  0
LINE
  5
5A9B
330
5A77
100
AcDbEntity
  8
0
  6
Continuous
370
    25
100
AcDbLine
 10
17.2
 20
168.868038
 30
0.0
 11
10.2
 21
168.868038
 31
0.0
  0
LINE
  5
5A9C
330
5A77
100
AcDbEntity
  8
0
  6
Continuous
370
    25
100
AcDbLine
 10
10.2
 20
104.868038
 30
0.0
 11
17.2
 21
104.868038
 31
0.0
  0
LINE
  5
5A9D
330
5A77
100
AcDbEntity
  8
0
  6
Continuous
370
    25
100
AcDbLine
 10
17.2
 20
123.868038
 30
0.0
 11
10.2
 21
123.868038
 31
0.0
  0
LINE
  5
5A9E
330
5A77
100
AcDbEntity
  8
0
  6
Continuous
370
    25
100
AcDbLine
 10
7.2
 20
156.368038
 30
0.0
 11
9.7
 21
156.368038
 31
0.0
  0
LINE
  5
5A9F
330
5A77
100
AcDbEntity
  8
0
  6
Continuous
370
    25
100
AcDbLine
 10
9.7
 20
162.368038
 30
0.0
 11
7.2
 21
162.368038
 31
0.0
  0
LINE
  5
5AA0
330
5A77
100
AcDbEntity
  8
0
  6
Continuous
370
    25
100
AcDbLine
 10
7.2
 20
111.368038
 30
0.0
 11
9.7
 21
111.368038
 31
0.0
  0
LINE
  5
5AA1
330
5A77
100
AcDbEntity
  8
0
  6
Continuous
370
    25
100
AcDbLine
 10
9.7
 20
117.368038
 30
0.0
 11
7.2
 21
117.368038
 31
0.0
  0
LINE
  5
5AA2
330
5A77
100
AcDbEntity
  8
0
  6
Continuous
370
    25
100
AcDbLine
 10
28.3
 20
181.368038
 30
0.0
 11
28.3
 21
179.368038
 31
0.0
  0
LINE
  5
5AA3
330
5A77
100
AcDbEntity
  8
0
  6
Continuous
370
    25
100
AcDbLine
 10
56.3
 20
179.368038
 30
0.0
 11
56.3
 21
181.368038
 31
0.0
  0
ARC
  5
5AA4
330
5A77
100
AcDbEntity
  8
0
  6
Continuous
370
    25
100
AcDbCircle
 10
42.3
 20
150.201371
 30
0.0
 40
34.16666666666679
100
AcDbArc
 50
65.810486
 51
114.189514
  0
ARC
  5
5AA5
330
5A77
100
AcDbEntity
  8
0
  6
Continuous
370
    25
100
AcDbCircle
 10
42.3
 20
34.034704
 30
0.0
 40
34.16666666666671
100
AcDbArc
 50
275.422597
 51
294.189514
  0
ARC
  5
5AA6
330
5A77
100
AcDbEntity
  8
0
  6
Continuous
370
    25
100
AcDbCircle
 10
42.3
 20
34.034704
 30
0.0
 40
34.16666666666674
100
AcDbArc
 50
245.810486
 51
264.577403
  0
LINE
  5
5AA7
330
5A77
100
AcDbEntity
  8
0
  6
Continuous
370
    25
100
AcDbLine
 10
56.3
 20
2.868038
 30
0.0
 11
56.3
 21
4.868038
 31
0.0
  0
LINE
  5
5AA8
330
5A77
100
AcDbEntity
  8
0
  6
Continuous
370
    25
100
AcDbLine
 10
28.3
 20
4.868038
 30
0.0
 11
28.3
 21
2.868038
 31
0.0
  0
LINE
  5
5AA9
330
5A77
100
AcDbEntity
  8
0
  6
Continuous
370
    25
100
AcDbLine
 10
54.7
 20
89.868038
 30
0.0
 11
54.7
 21
90.168038
 31
0.0
  0
LINE
  5
5AAA
330
5A77
100
AcDbEntity
  8
0
  6
Continuous
370
    25
100
AcDbLine
 10
56.4
 20
94.368038
 30
0.0
 11
56.4
 21
179.368038
 31
0.0
  0
LINE
  5
5AAB
330
5A77
100
AcDbEntity
  8
0
  6
Continuous
370
    25
100
AcDbLine
 10
10.2
 20
166.768038
 30
0.0
 11
9.7
 21
166.268038
 31
0.0
  0
LINE
  5
5AAC
330
5A77
100
AcDbEntity
  8
0
  6
Continuous
370
    25
100
AcDbLine
 10
9.7
 20
152.468038
 30
0.0
 11
10.2
 21
151.968038
 31
0.0
  0
LINE
  5
5AAD
330
5A77
100
AcDbEntity
  8
0
  6
Continuous
370
    25
100
AcDbLine
 10
10.2
 20
121.768038
 30
0.0
 11
9.7
 21
121.268038
 31
0.0
  0
LINE
  5
5AAE
330
5A77
100
AcDbEntity
  8
0
  6
Continuous
370
    25
100
AcDbLine
 10
9.7
 20
107.468038
 30
0.0
 11
10.2
 21
106.968038
 31
0.0
  0
LINE
  5
5AAF
330
5A77
100
AcDbEntity
  8
0
  6
Continuous
370
    25
100
AcDbLine
 10
56.4
 20
4.868038
 30
0.0
 11
56.4
 21
89.868038
 31
0.0
  0
LINE
  5
5AB0
330
5A77
100
AcDbEntity
  8
0
  6
Continuous
370
    25
100
AcDbLine
 10
28.3
 20
93.968038
 30
0.0
 11
28.3
 21
90.168038
 31
0.0
  0
LINE
  5
5AB1
330
5A77
100
AcDbEntity
  8
0
  6
Continuous
370
    25
100
AcDbLine
 10
56.3
 20
90.168038
 30
0.0
 11
56.3
 21
93.968038
 31
0.0
  0
LINE
  5
5AB2
330
5A77
100
AcDbEntity
  8
0
  6
Continuous
370
    25
100
AcDbLine
 10
29.5
 20
94.368038
 30
0.0
 11
29.5
 21
93.968038
 31
0.0
  0
LINE
  5
5AB3
330
5A77
100
AcDbEntity
  8
0
  6
Continuous
370
    25
100
AcDbLine
 10
55.1
 20
93.968038
 30
0.0
 11
55.1
 21
94.368038
 31
0.0
  0
ARC
  5
5AB4
330
5A77
100
AcDbEntity
  8
0
  6
Continuous
370
    25
100
AcDbCircle
 10
12.5
 20
28.493038
 30
0.0
 40
1.725000000000021
100
AcDbArc
 50
188.333083
 51
351.666917
  0
LINE
  5
5AB5
330
5A77
100
AcDbEntity
  8
0
  6
Continuous
370
    25
100
AcDbLine
 10
14.206788
 20
28.243038
 30
0.0
 11
10.793212
 21
28.243038
 31
0.0
  0
SPLINE
  5
5AB6
330
5A77
100
AcDbEntity
  8
0
  6
Continuous
370
    25
100
AcDbSpline
210
0.0
220
0.0
230
1.0
 70
    24
 71
     3
 72
     9
 73
     5
 74
     0
 42
0.000000001
 43
0.00000001
 40
0.0
 40
0.0
 40
0.0
 40
0.0
 40
0.7850067235798689
 40
1.0
 40
1.0
 40
1.0
 40
1.0
 10
10.49049135358911
 20
28.24303782886079
 30
0.0
 10
10.56964905553622
 20
28.24303782886079
 30
0.0
 10
10.67048602873581
 20
28.24303782886079
 30
0.0
 10
10.77149568432492
 20
28.24303782886079
 30
0.0
 10
10.79321208113009
 20
28.24303782886079
 30
0.0
  0
SPLINE
  5
5AB7
330
5A77
100
AcDbEntity
  8
0
  6
Continuous
370
    25
100
AcDbSpline
210
0.0
220
0.0
230
1.0
 70
    24
 71
     3
 72
     9
 73
     5
 74
     0
 42
0.000000001
 43
0.00000001
 40
0.0
 40
0.0
 40
0.0
 40
0.0
 40
0.2149932764201052
 40
1.0
 40
1.0
 40
1.0
 40
1.0
 10
14.20678791886974
 20
28.24303782886079
 30
0.0
 10
14.22850431567491
 20
28.24303782886079
 30
0.0
 10
14.32951397126402
 20
28.24303782886079
 30
0.0
 10
14.43035094446367
 20
28.24303782886079
 30
0.0
 10
14.50950864641078
 20
28.24303782886079
 30
0.0
  0
SPLINE
  5
5AB8
330
5A77
100
AcDbEntity
  8
0
  6
Continuous
370
    25
100
AcDbSpline
210
0.0
220
0.0
230
1.0
 70
    24
 71
     3
 72
     9
 73
     5
 74
     0
 42
0.000000001
 43
0.00000001
 40
0.0
 40
0.0
 40
0.0
 40
0.0
 40
0.7850067235798736
 40
0.9999999999999999
 40
0.9999999999999999
 40
0.9999999999999999
 40
0.9999999999999999
 10
10.49049135358905
 20
65.99303782886079
 30
0.0
 10
10.56964905553622
 20
65.99303782886079
 30
0.0
 10
10.67048602873581
 20
65.99303782886079
 30
0.0
 10
10.77149568432492
 20
65.99303782886079
 30
0.0
 10
10.79321208113009
 20
65.99303782886079
 30
0.0
  0
ARC
  5
5AB9
330
5A77
100
AcDbEntity
  8
0
  6
Continuous
370
    25
100
AcDbCircle
 10
12.5
 20
66.243038
 30
0.0
 40
1.725000000000029
100
AcDbArc
 50
188.333083
 51
351.666917
  0
SPLINE
  5
5ABA
330
5A77
100
AcDbEntity
  8
0
  6
Continuous
370
    25
100
AcDbSpline
210
0.0
220
0.0
230
1.0
 70
    24
 71
     3
 72
     9
 73
     5
 74
     0
 42
0.000000001
 43
0.00000001
 40
0.0
 40
0.0
 40
0.0
 40
0.0
 40
0.2149932764201035
 40
0.9999999999999999
 40
0.9999999999999999
 40
0.9999999999999999
 40
0.9999999999999999
 10
14.20678791886974
 20
65.99303782886079
 30
0.0
 10
14.22850431567491
 20
65.99303782886079
 30
0.0
 10
14.32951397126402
 20
65.99303782886079
 30
0.0
 10
14.43035094446367
 20
65.99303782886079
 30
0.0
 10
14.50950864641078
 20
65.99303782886079
 30
0.0
  0
ARC
  5
5ABB
330
5A77
100
AcDbEntity
  8
0
  6
Continuous
370
    25
100
AcDbCircle
 10
12.5
 20
28.493038
 30
0.0
 40
1.725000000000021
100
AcDbArc
 50
8.333083
 51
171.666917
  0
LINE
  5
5ABC
330
5A77
100
AcDbEntity
  8
0
  6
Continuous
370
    25
100
AcDbLine
 10
14.206788
 20
28.743038
 30
0.0
 11
10.793212
 21
28.743038
 31
0.0
  0
ARC
  5
5ABD
330
5A77
100
AcDbEntity
  8
0
  6
Continuous
370
    25
100
AcDbCircle
 10
12.5
 20
66.243038
 30
0.0
 40
1.725000000000013
100
AcDbArc
 50
8.333083
 51
171.666917
  0
SPLINE
  5
5ABE
330
5A77
100
AcDbEntity
  8
0
  6
Continuous
370
    25
100
AcDbSpline
210
0.0
220
0.0
230
1.0
 70
    24
 71
     3
 72
     9
 73
     5
 74
     0
 42
0.000000001
 43
0.00000001
 40
0.0
 40
0.0
 40
0.0
 40
0.0
 40
0.2742008549558819
 40
1.0
 40
1.0
 40
1.0
 40
1.0
 10
10.79321208113009
 20
66.49303782886079
 30
0.0
 10
10.77149495162018
 20
66.49303782886079
 30
0.0
 10
10.69229341334147
 20
66.49303782886079
 30
0.0
 10
10.61322727052931
 20
66.49303782886079
 30
0.0
 10
10.5558411316743
 20
66.49303782886079
 30
0.0
  0
SPLINE
  5
5ABF
330
5A77
100
AcDbEntity
  8
0
  6
Continuous
370
    25
100
AcDbSpline
210
0.0
220
0.0
230
1.0
 70
    24
 71
     3
 72
     9
 73
     5
 74
     0
 42
0.000000001
 43
0.00000001
 40
0.0
 40
0.0
 40
0.0
 40
0.0
 40
0.7850067235798707
 40
0.9999999999999999
 40
0.9999999999999999
 40
0.9999999999999999
 40
0.9999999999999999
 10
14.50950864641078
 20
66.49303782886079
 30
0.0
 10
14.43035094446367
 20
66.49303782886079
 30
0.0
 10
14.32951397126402
 20
66.49303782886074
 30
0.0
 10
14.22850431567491
 20
66.49303782886079
 30
0.0
 10
14.20678791886974
 20
66.49303782886079
 30
0.0
  0
LINE
  5
5AC0
330
5A77
100
AcDbEntity
  8
0
  6
Continuous
370
    25
100
AcDbLine
 10
14.206788
 20
65.993038
 30
0.0
 11
10.793212
 21
65.993038
 31
0.0
  0
SPLINE
  5
5AC1
330
5A77
100
AcDbEntity
  8
0
  6
Continuous
370
    25
100
AcDbSpline
210
0.0
220
0.0
230
1.0
 70
    24
 71
     3
 72
     9
 73
     5
 74
     0
 42
0.000000001
 43
0.00000001
 40
0.0
 40
0.0
 40
0.0
 40
0.0
 40
0.2149932764201103
 40
1.0
 40
1.0
 40
1.0
 40
1.0
 10
10.79321208113009
 20
28.74303782886079
 30
0.0
 10
10.77149568432492
 20
28.74303782886079
 30
0.0
 10
10.67048602873581
 20
28.74303782886079
 30
0.0
 10
10.56964905553622
 20
28.74303782886079
 30
0.0
 10
10.49049135358911
 20
28.74303782886079
 30
0.0
  0
SPLINE
  5
5AC2
330
5A77
100
AcDbEntity
  8
0
  6
Continuous
370
    25
100
AcDbSpline
210
0.0
220
0.0
230
1.0
 70
    24
 71
     3
 72
     9
 73
     5
 74
     0
 42
0.000000001
 43
0.00000001
 40
0.0
 40
0.0
 40
0.0
 40
0.0
 40
0.785006723579874
 40
1.0
 40
1.0
 40
1.0
 40
1.0
 10
14.50950864641078
 20
28.74303782886079
 30
0.0
 10
14.43035094446367
 20
28.74303782886079
 30
0.0
 10
14.32951397126402
 20
28.74303782886079
 30
0.0
 10
14.22850431567491
 20
28.74303782886079
 30
0.0
 10
14.20678791886974
 20
28.74303782886079
 30
0.0
  0
LINE
  5
5AC3
330
5A77
100
AcDbEntity
  8
0
  6
Continuous
370
    25
100
AcDbLine
 10
14.206788
 20
66.493038
 30
0.0
 11
10.793212
 21
66.493038
 31
0.0
  0
SPLINE
  5
5AC4
330
5A77
100
AcDbEntity
  8
0
  6
Continuous
370
    25
100
AcDbSpline
210
0.0
220
0.0
230
1.0
 70
     8
 71
     3
 72
    16
 73
    12
 74
     0
 42
0.000000001
 43
0.00000001
 40
0.0
 40
0.0
 40
0.0
 40
0.0
 40
0.04905561041199
 40
0.1712748780539376
 40
0.2942808804657458
 40
0.4178116680630171
 40
0.5404939862079845
 40
0.6622908868184803
 40
0.7845183891840084
 40
0.907832906457117
 40
1.0
 40
1.0
 40
1.0
 40
1.0
 10
10.76722765488586
 20
66.48798680315588
 30
0.0
 10
10.76685162438281
 20
66.48530740015946
 30
0.0
 10
10.76553873523511
 20
66.47595241675162
 30
0.0
 10
10.76112129590223
 20
66.44237200536281
 30
0.0
 10
10.75480615322391
 20
66.37922495335806
 30
0.0
 10
10.75026314799607
 20
66.3001976849406
 30
0.0
 10
10.74953618454458
 20
66.21499876811077
 30
0.0
 10
10.75289326719223
 20
66.13319176085758
 30
0.0
 10
10.75881594074247
 20
66.06405071191097
 30
0.0
 10
10.76454208301749
 20
66.01723333290812
 30
0.0
 10
10.76642309647042
 20
66.00382426285705
 30
0.0
 10
10.76722765488358
 20
65.9980888545823
 30
0.0
  0
LINE
  5
5AC5
330
5A77
100
AcDbEntity
  8
0
  6
Continuous
370
    25
100
AcDbLine
 10
10.518302
 20
66.487987
 30
0.0
 11
10.767228
 21
66.487987
 31
0.0
  0
SPLINE
  5
5AC6
330
5A77
100
AcDbEntity
  8
0
  6
Continuous
370
    25
100
AcDbSpline
210
0.0
220
0.0
230
1.0
 70
     8
 71
     3
 72
    16
 73
    12
 74
     0
 42
0.000000001
 43
0.00000001
 40
0.0
 40
0.0
 40
0.0
 40
0.0
 40
0.0490556104119879
 40
0.1712748780539374
 40
0.2942808804657463
 40
0.4178116680630271
 40
0.5404939862079847
 40
0.6622908868184906
 40
0.7845183891840107
 40
0.9078329064571199
 40
1.0
 40
1.0
 40
1.0
 40
1.0
 10
14.23277234511397
 20
65.99808885456571
 30
0.0
 10
14.23314837561702
 20
66.00076825756213
 30
0.0
 10
14.23446126476478
 20
66.01012324096996
 30
0.0
 10
14.2388787040976
 20
66.04370365235877
 30
0.0
 10
14.24519384677592
 20
66.10685070436358
 30
0.0
 10
14.24973685200376
 20
66.18587797278104
 30
0.0
 10
14.25046381545525
 20
66.27107688961081
 30
0.0
 10
14.24710673280759
 20
66.352883896864
 30
0.0
 10
14.24118405925736
 20
66.42202494581062
 30
0.0
 10
14.2354579169824
 20
66.46884232481347
 30
0.0
 10
14.23357690352941
 20
66.48225139486459
 30
0.0
 10
14.23277234511625
 20
66.48798680313922
 30
0.0
  0
LINE
  5
5AC7
330
5A77
100
AcDbEntity
  8
0
  6
Continuous
370
    25
100
AcDbLine
 10
14.487869
 20
65.998089
 30
0.0
 11
14.232772
 21
65.998089
 31
0.0
  0
SPLINE
  5
5AC8
330
5A77
100
AcDbEntity
  8
0
  6
Continuous
370
    25
100
AcDbSpline
210
0.0
220
0.0
230
1.0
 70
     8
 71
     3
 72
    16
 73
    12
 74
     0
 42
0.000000001
 43
0.00000001
 40
0.0
 40
0.0
 40
0.0
 40
0.0
 40
0.1229169783810127
 40
0.2458021902724487
 40
0.3693365963765039
 40
0.4925041096958848
 40
0.6145697833949577
 40
0.7365058787321178
 40
0.8594705958970614
 40
0.9830543729136191
 40
1.0
 40
1.0
 40
1.0
 40
1.0
 10
10.76722765488358
 20
28.73798680313911
 30
0.0
 10
10.76605852372546
 20
28.72966846942074
 30
0.0
 10
10.7637205635578
 20
28.71303395176233
 30
0.0
 10
10.75717812461443
 20
28.65602678841287
 30
0.0
 10
10.75167902015193
 20
28.58256244043929
 30
0.0
 10
10.74930628839951
 20
28.49846876315036
 30
0.0
 10
10.75114763253731
 20
28.41430690180198
 30
0.0
 10
10.75634936635947
 20
28.33902617673169
 30
0.0
 10
10.76270498656362
 20
28.28080973315286
 30
0.0
 10
10.76614606605335
 20
28.25576698136371
 30
0.0
 10
10.7671112669023
 20
28.24891508507864
 30
0.0
 10
10.76722765488358
 20
28.24808885458248
 30
0.0
  0
SPLINE
  5
5AC9
330
5A77
100
AcDbEntity
  8
0
  6
Continuous
370
    25
100
AcDbSpline
210
0.0
220
0.0
230
1.0
 70
     8
 71
     3
 72
    16
 73
    12
 74
     0
 42
0.000000001
 43
0.00000001
 40
0.0
 40
0.0
 40
0.0
 40
0.0
 40
0.1229169783810127
 40
0.2458021902724493
 40
0.3693365963765044
 40
0.492504109695885
 40
0.6145697833949578
 40
0.7365058787321193
 40
0.859470595897061
 40
0.9830543729136217
 40
1.0
 40
1.0
 40
1.0
 40
1.0
 10
14.23277234511625
 20
28.24808885458248
 30
0.0
 10
14.23394147627442
 20
28.25640718830084
 30
0.0
 10
14.23627943644209
 20
28.27304170595926
 30
0.0
 10
14.2428218753854
 20
28.33004886930871
 30
0.0
 10
14.2483209798479
 20
28.40351321728235
 30
0.0
 10
14.25069371160032
 20
28.48760689457123
 30
0.0
 10
14.24885236746252
 20
28.57176875591961
 30
0.0
 10
14.24365063364036
 20
28.64704948098995
 30
0.0
 10
14.23729501343627
 20
28.70526592456872
 30
0.0
 10
14.23385393394648
 20
28.73030867635794
 30
0.0
 10
14.23288873309752
 20
28.73716057264295
 30
0.0
 10
14.23277234511625
 20
28.73798680313911
 30
0.0
  0
LINE
  5
5ACA
330
5A77
100
AcDbEntity
  8
0
  6
Continuous
370
    25
100
AcDbLine
 10
10.2
 20
149.868038
 30
0.0
 11
10.2
 21
168.868038
 31
0.0
  0
LINE
  5
5ACB
330
5A77
100
AcDbEntity
  8
0
  6
Continuous
370
    25
100
AcDbLine
 10
10.2
 20
104.868038
 30
0.0
 11
10.2
 21
123.868038
 31
0.0
  0
LINE
  5
5ACC
330
5A77
100
AcDbEntity
  8
0
  6
Continuous
370
    25
100
AcDbLine
 10
2.0
 20
178.418038
 30
0.0
 11
7.2
 21
178.418038
 31
0.0
  0
LINE
  5
5ACD
330
5A77
100
AcDbEntity
  8
0
  6
Continuous
370
    25
100
AcDbLine
 10
2.0
 20
178.418038
 30
0.0
 11
2.0
 21
95.318038
 31
0.0
  0
LINE
  5
5ACE
330
5A77
100
AcDbEntity
  8
0
  6
Continuous
370
    25
100
AcDbLine
 10
7.2
 20
178.418038
 30
0.0
 11
7.2
 21
95.318038
 31
0.0
  0
LINE
  5
5ACF
330
5A77
100
AcDbEntity
  8
0
  6
Continuous
370
    25
100
AcDbLine
 10
2.0
 20
95.318038
 30
0.0
 11
7.2
 21
95.318038
 31
0.0
  0
ARC
  5
5AD0
330
5A77
100
AcDbEntity
  8
0
  6
Continuous
370
    25
100
AcDbCircle
 10
2.0
 20
96.118038
 30
0.0
 40
2.000000000000043
100
AcDbArc
 50
180.0
 51
203.578178
  0
LINE
  5
5AD1
330
5A77
100
AcDbEntity
  8
0
  6
Continuous
370
    25
100
AcDbLine
 10
0.0
 20
96.118038
 30
0.0
 11
0.0
 21
177.618038
 31
0.0
  0
ARC
  5
5AD2
330
5A77
100
AcDbEntity
  8
0
  6
Continuous
370
    25
100
AcDbCircle
 10
2.0
 20
177.618038
 30
0.0
 40
2.000000000000065
100
AcDbArc
 50
156.421822
 51
180.0
  0
LINE
  5
5AD3
330
5A77
100
AcDbEntity
  8
0
  6
Continuous
370
    25
100
AcDbLine
 10
0.16697
 20
178.418038
 30
0.0
 11
2.0
 21
178.418038
 31
0.0
  0
LINE
  5
5AD4
330
5A77
100
AcDbEntity
  8
0
  6
Continuous
370
    25
100
AcDbLine
 10
2.0
 20
95.318038
 30
0.0
 11
0.16697
 21
95.318038
 31
0.0
  0
LINE
  5
5AD5
330
5A77
100
AcDbEntity
  8
0
  6
Continuous
370
    25
100
AcDbLine
 10
2.0
 20
179.618038
 30
0.0
 11
7.2
 21
179.618038
 31
0.0
  0
LINE
  5
5AD6
330
5A77
100
AcDbEntity
  8
0
  6
Continuous
370
    25
100
AcDbLine
 10
7.2
 20
178.618038
 30
0.0
 11
7.2
 21
179.618038
 31
0.0
  0
LINE
  5
5AD7
330
5A77
100
AcDbEntity
  8
0
  6
Continuous
370
    25
100
AcDbLine
 10
1.5
 20
178.618038
 30
0.0
 11
7.2
 21
178.618038
 31
0.0
  0
ARC
  5
5AD8
330
5A77
100
AcDbEntity
  8
0
  6
Continuous
370
    25
100
AcDbCircle
 10
1.5
 20
178.118038
 30
0.0
 40
0.5000000000000341
100
AcDbArc
 50
90.0
 51
143.130102
  0
ARC
  5
5AD9
330
5A77
100
AcDbEntity
  8
0
  6
Continuous
370
    25
100
AcDbCircle
 10
2.0
 20
177.618038
 30
0.0
 40
2.000000000000013
100
AcDbArc
 50
90.0
 51
156.421822
  0
ARC
  5
5ADA
330
5A77
100
AcDbEntity
  8
0
  6
Continuous
370
    25
100
AcDbCircle
 10
1.5
 20
95.618038
 30
0.0
 40
0.5
100
AcDbArc
 50
216.869898
 51
270.0
  0
LINE
  5
5ADB
330
5A77
100
AcDbEntity
  8
0
  6
Continuous
370
    25
100
AcDbLine
 10
7.2
 20
95.118038
 30
0.0
 11
1.5
 21
95.118038
 31
0.0
  0
LINE
  5
5ADC
330
5A77
100
AcDbEntity
  8
0
  6
Continuous
370
    25
100
AcDbLine
 10
7.2
 20
94.118038
 30
0.0
 11
7.2
 21
95.118038
 31
0.0
  0
ARC
  5
5ADD
330
5A77
100
AcDbEntity
  8
0
  6
Continuous
370
    25
100
AcDbCircle
 10
2.0
 20
96.118038
 30
0.0
 40
2.000000000000043
100
AcDbArc
 50
203.578178
 51
270.0
  0
LINE
  5
5ADE
330
5A77
100
AcDbEntity
  8
0
  6
Continuous
370
    25
100
AcDbLine
 10
2.0
 20
94.118038
 30
0.0
 11
7.2
 21
94.118038
 31
0.0
  0
LINE
  5
5ADF
330
5A77
100
AcDbEntity
  8
0
  6
Continuous
370
    25
100
AcDbLine
 10
17.7
 20
176.368038
 30
0.0
 11
17.2
 21
176.368038
 31
0.0
  0
LINE
  5
5AE0
330
5A77
100
AcDbEntity
  8
0
  6
Continuous
370
    25
100
AcDbLine
 10
17.7
 20
97.368038
 30
0.0
 11
17.2
 21
97.368038
 31
0.0
  0
LINE
  5
5AE1
330
5A77
100
AcDbEntity
  8
0
  6
Continuous
370
    25
100
AcDbLine
 10
17.2
 20
176.368038
 30
0.0
 11
17.2
 21
97.368038
 31
0.0
  0
LINE
  5
5AE2
330
5A77
100
AcDbEntity
  8
0
  6
Continuous
370
    25
100
AcDbLine
 10
17.7
 20
95.368038
 30
0.0
 11
17.2
 21
95.368038
 31
0.0
  0
LINE
  5
5AE3
330
5A77
100
AcDbEntity
  8
0
  6
Continuous
370
    25
100
AcDbLine
 10
17.2
 20
97.368038
 30
0.0
 11
17.2
 21
95.368038
 31
0.0
  0
LINE
  5
5AE4
330
5A77
100
AcDbEntity
  8
0
  6
Continuous
370
    25
100
AcDbLine
 10
17.7
 20
178.368038
 30
0.0
 11
17.2
 21
178.368038
 31
0.0
  0
LINE
  5
5AE5
330
5A77
100
AcDbEntity
  8
0
  6
Continuous
370
    25
100
AcDbLine
 10
17.2
 20
178.368038
 30
0.0
 11
17.2
 21
176.368038
 31
0.0
  0
LINE
  5
5AE6
330
5A77
100
AcDbEntity
  8
0
  6
Continuous
370
    25
100
AcDbLine
 10
46.917424
 20
181.368038
 30
0.0
 11
56.3
 21
181.368038
 31
0.0
  0
LINE
  5
5AE7
330
5A77
100
AcDbEntity
  8
0
  6
Continuous
370
    25
100
AcDbLine
 10
28.3
 20
181.368038
 30
0.0
 11
46.917424
 21
181.368038
 31
0.0
  0
LINE
  5
5AE8
330
5A77
100
AcDbEntity
  8
0
  6
Continuous
370
    25
100
AcDbLine
 10
28.446695
 20
2.868038
 30
0.0
 11
28.3
 21
2.868038
 31
0.0
  0
LINE
  5
5AE9
330
5A77
100
AcDbEntity
  8
0
  6
Continuous
370
    25
100
AcDbLine
 10
56.3
 20
2.868038
 30
0.0
 11
28.446695
 21
2.868038
 31
0.0
  0
ARC
  5
5AEA
330
5A77
100
AcDbEntity
  8
0
  6
Continuous
370
    25
100
AcDbCircle
 10
41.866849
 20
33.325427
 30
0.0
 40
33.3254265538183
100
AcDbArc
 50
267.968691
 51
270.74473
  0
ARC
  5
5AEB
330
5A77
100
AcDbEntity
  8
0
  6
Continuous
370
    25
100
AcDbCircle
 10
44.654269
 20
13.081398
 30
0.0
 40
13.08139670998445
100
AcDbArc
 50
266.757646
 51
271.188445
  0
ARC
  5
5AEC
330
5A77
100
AcDbEntity
  8
0
  6
Continuous
370
    25
100
AcDbCircle
 10
45.087273
 20
4.673125
 30
0.0
 40
4.673087040548602
100
AcDbArc
 50
262.125631
 51
275.421344
  0
ARC
  5
5AED
330
5A77
100
AcDbEntity
  8
0
  6
Continuous
370
    25
100
AcDbCircle
 10
42.733151
 20
33.325731
 30
0.0
 40
33.32573057497557
100
AcDbArc
 50
267.052047
 51
272.947953
  0
ARC
  5
5AEE
330
5A77
100
AcDbEntity
  8
0
  6
Continuous
370
    25
100
AcDbCircle
 10
39.945723
 20
13.090382
 30
0.0
 40
13.09037408754812
100
AcDbArc
 50
265.295956
 51
274.704044
  0
ARC
  5
5AEF
330
5A77
100
AcDbEntity
  8
0
  6
Continuous
370
    25
100
AcDbCircle
 10
39.512731
 20
4.675684
 30
0.0
 40
4.675665478547821
100
AcDbArc
 50
262.126095
 51
271.981639
  0
LINE
  5
5AF0
330
5A77
100
AcDbEntity
  8
0
  6
Continuous
370
    25
100
AcDbLine
 10
29.931698
 20
90.168038
 30
0.0
 11
29.931698
 21
89.868038
 31
0.0
  0
LINE
  5
5AF1
330
5A77
100
AcDbEntity
  8
0
  6
Continuous
370
    25
100
AcDbLine
 10
28.932539
 20
179.368038
 30
0.0
 11
28.932539
 21
94.368038
 31
0.0
  0
LINE
  5
5AF2
330
5A77
100
AcDbEntity
  8
0
  6
Continuous
370
    25
100
AcDbLine
 10
28.932539
 20
179.368038
 30
0.0
 11
56.4
 21
179.368038
 31
0.0
  0
LINE
  5
5AF3
330
5A77
100
AcDbEntity
  8
0
  6
Continuous
370
    25
100
AcDbLine
 10
28.932539
 20
94.368038
 30
0.0
 11
56.4
 21
94.368038
 31
0.0
  0
LINE
  5
5AF4
330
5A77
100
AcDbEntity
  8
0
  6
Continuous
370
    25
100
AcDbLine
 10
18.810319
 20
179.368038
 30
0.0
 11
18.810319
 21
94.368038
 31
0.0
  0
LINE
  5
5AF5
330
5A77
100
AcDbEntity
  8
0
  6
Continuous
370
    25
100
AcDbLine
 10
18.810319
 20
179.368038
 30
0.0
 11
28.932539
 21
179.368038
 31
0.0
  0
LINE
  5
5AF6
330
5A77
100
AcDbEntity
  8
0
  6
Continuous
370
    25
100
AcDbLine
 10
18.810319
 20
94.368038
 30
0.0
 11
28.932539
 21
94.368038
 31
0.0
  0
LINE
  5
5AF7
330
5A77
100
AcDbEntity
  8
0
  6
Continuous
370
    25
100
AcDbLine
 10
18.147736
 20
179.368038
 30
0.0
 11
18.147736
 21
94.368038
 31
0.0
  0
LINE
  5
5AF8
330
5A77
100
AcDbEntity
  8
0
  6
Continuous
370
    25
100
AcDbLine
 10
18.147736
 20
179.368038
 30
0.0
 11
18.810319
 21
179.368038
 31
0.0
  0
LINE
  5
5AF9
330
5A77
100
AcDbEntity
  8
0
  6
Continuous
370
    25
100
AcDbLine
 10
18.147736
 20
94.368038
 30
0.0
 11
18.810319
 21
94.368038
 31
0.0
  0
LINE
  5
5AFA
330
5A77
100
AcDbEntity
  8
0
  6
Continuous
370
    25
100
AcDbLine
 10
17.7
 20
179.368038
 30
0.0
 11
17.7
 21
94.368038
 31
0.0
  0
LINE
  5
5AFB
330
5A77
100
AcDbEntity
  8
0
  6
Continuous
370
    25
100
AcDbLine
 10
17.7
 20
179.368038
 30
0.0
 11
18.147736
 21
179.368038
 31
0.0
  0
LINE
  5
5AFC
330
5A77
100
AcDbEntity
  8
0
  6
Continuous
370
    25
100
AcDbLine
 10
17.7
 20
94.368038
 30
0.0
 11
18.147736
 21
94.368038
 31
0.0
  0
LINE
  5
5AFD
330
5A77
100
AcDbEntity
  8
0
  6
Continuous
370
    25
100
AcDbLine
 10
9.7
 20
152.468038
 30
0.0
 11
9.7
 21
166.268038
 31
0.0
  0
LINE
  5
5AFE
330
5A77
100
AcDbEntity
  8
0
  6
Continuous
370
    25
100
AcDbLine
 10
9.7
 20
107.468038
 30
0.0
 11
9.7
 21
121.268038
 31
0.0
  0
LINE
  5
5AFF
330
5A77
100
AcDbEntity
  8
0
  6
Continuous
370
    25
100
AcDbLine
 10
34.2
 20
4.868038
 30
0.0
 11
4.2
 21
4.868038
 31
0.0
  0
LINE
  5
5B00
330
5A77
100
AcDbEntity
  8
0
  6
Continuous
370
    25
100
AcDbLine
 10
4.2
 20
89.868038
 30
0.0
 11
4.2
 21
4.868038
 31
0.0
  0
LINE
  5
5B01
330
5A77
100
AcDbEntity
  8
0
  6
Continuous
370
    25
100
AcDbLine
 10
34.2
 20
89.868038
 30
0.0
 11
4.2
 21
89.868038
 31
0.0
  0
LINE
  5
5B02
330
5A77
100
AcDbEntity
  8
0
  6
Continuous
370
    25
100
AcDbLine
 10
34.2
 20
89.868038
 30
0.0
 11
34.2
 21
4.868038
 31
0.0
  0
CIRCLE
  5
5B03
330
5A77
100
AcDbEntity
  8
0
  6
Continuous
370
    25
100
AcDbCircle
 10
12.5
 20
47.368038
 30
0.0
 40
3.200000000000045
  0
CIRCLE
  5
5B04
330
5A77
100
AcDbEntity
  8
0
  6
Continuous
370
    25
100
AcDbCircle
 10
12.5
 20
14.868038
 30
0.0
 40
3.200000000000045
  0
CIRCLE
  5
5B05
330
5A77
100
AcDbEntity
  8
0
  6
Continuous
370
    25
100
AcDbCircle
 10
12.5
 20
79.868038
 30
0.0
 40
3.200000000000045
  0
CIRCLE
  5
5B06
330
5A77
100
AcDbEntity
  8
0
  6
Continuous
370
    25
100
AcDbCircle
 10
12.5
 20
66.218038
 30
0.0
 40
2.0
  0
CIRCLE
  5
5B07
330
5A77
100
AcDbEntity
  8
0
  6
Continuous
370
    25
100
AcDbCircle
 10
12.5
 20
28.518038
 30
0.0
 40
2.0
  0
LINE
  5
5B08
330
5A77
100
AcDbEntity
  8
0
  6
Continuous
370
    25
100
AcDbLine
 10
41.694104
 20
89.868038
 30
0.0
 11
41.694104
 21
4.868038
 31
0.0
  0
LINE
  5
5B09
330
5A77
100
AcDbEntity
  8
0
  6
Continuous
370
    25
100
AcDbLine
 10
41.694104
 20
4.868038
 30
0.0
 11
34.2
 21
4.868038
 31
0.0
  0
LINE
  5
5B0A
330
5A77
100
AcDbEntity
  8
0
  6
Continuous
370
    25
100
AcDbLine
 10
41.694104
 20
89.868038
 30
0.0
 11
34.2
 21
89.868038
 31
0.0
  0
LINE
  5
5B0B
330
5A77
100
AcDbEntity
  8
0
  6
Continuous
370
    25
100
AcDbLine
 10
41.694104
 20
4.868038
 30
0.0
 11
56.4
 21
4.868038
 31
0.0
  0
LINE
  5
5B0C
330
5A77
100
AcDbEntity
  8
0
  6
Continuous
370
    25
100
AcDbLine
 10
56.4
 20
89.868038
 30
0.0
 11
41.694104
 21
89.868038
 31
0.0
  0
LINE
  5
5B0D
330
5A77
100
AcDbEntity
  8
0
  6
Continuous
370
    25
100
AcDbLine
 10
32.47888
 20
90.168038
 30
0.0
 11
56.3
 21
90.168038
 31
0.0
  0
LINE
  5
5B0E
330
5A77
100
AcDbEntity
  8
0
  6
Continuous
370
    25
100
AcDbLine
 10
28.3
 20
90.168038
 30
0.0
 11
32.47888
 21
90.168038
 31
0.0
  0
LINE
  5
5B0F
330
5A77
100
AcDbEntity
  8
0
  6
Continuous
370
    25
100
AcDbLine
 10
32.47888
 20
93.968038
 30
0.0
 11
56.3
 21
93.968038
 31
0.0
  0
LINE
  5
5B10
330
5A77
100
AcDbEntity
  8
0
  6
Continuous
370
    25
100
AcDbLine
 10
28.3
 20
93.968038
 30
0.0
 11
32.47888
 21
93.968038
 31
0.0
  0
ENDBLK
  5
5B12
330
5A77
100
AcDbEntity
  8
0
100
AcDbBlockEnd
  0
BLOCK
  5
5B8F
330
5B15
100
AcDbEntity
  8
0
100
AcDbBlockBegin
  2
Appunti31783
 70
     0
 10
0.0
 20
0.0
 30
0.0
  3
Appunti31783
  1
Appunti31783
  0
LINE
  5
5B38
330
5B15
100
AcDbEntity
  8
0
  6
Continuous
370
    25
100
AcDbLine
 10
32.5
 20
46.2
 30
0.0
 11
32.5
 21
39.2
 31
0.0
  0
LINE
  5
5B39
330
5B15
100
AcDbEntity
  8
0
  6
Continuous
370
    25
100
AcDbLine
 10
51.5
 20
39.2
 30
0.0
 11
51.5
 21
46.2
 31
0.0
  0
LINE
  5
5B3A
330
5B15
100
AcDbEntity
  8
0
  6
Continuous
370
    25
100
AcDbLine
 10
39.0
 20
49.2
 30
0.0
 11
39.0
 21
46.7
 31
0.0
  0
LINE
  5
5B3B
330
5B15
100
AcDbEntity
  8
0
  6
Continuous
370
    25
100
AcDbLine
 10
45.0
 20
46.7
 30
0.0
 11
45.0
 21
49.2
 31
0.0
  0
LINE
  5
5B3C
330
5B15
100
AcDbEntity
  8
0
  6
Continuous
370
    25
100
AcDbLine
 10
30.456403
 20
19.519007
 30
0.0
 11
30.046905
 21
19.446801
 31
0.0
  0
LINE
  5
5B3D
330
5B15
100
AcDbEntity
  8
0
  6
Continuous
370
    25
100
AcDbLine
 10
31.088794
 20
13.537955
 30
0.0
 11
31.498292
 21
13.61016
 31
0.0
  0
LINE
  5
5B3E
330
5B15
100
AcDbEntity
  8
0
  6
Continuous
370
    25
100
AcDbLine
 10
31.498292
 20
13.61016
 30
0.0
 11
31.903872
 21
14.189388
 31
0.0
  0
LINE
  5
5B3F
330
5B15
100
AcDbEntity
  8
0
  6
Continuous
370
    25
100
AcDbLine
 10
31.035631
 20
19.113427
 30
0.0
 11
30.456403
 21
19.519007
 31
0.0
  0
LINE
  5
5B40
330
5B15
100
AcDbEntity
  8
0
  6
Continuous
370
    25
100
AcDbLine
 10
49.4
 20
46.2
 30
0.0
 11
48.9
 21
46.7
 31
0.0
  0
LINE
  5
5B41
330
5B15
100
AcDbEntity
  8
0
  6
Continuous
370
    25
100
AcDbLine
 10
35.1
 20
46.7
 30
0.0
 11
34.6
 21
46.2
 31
0.0
  0
LINE
  5
5B42
330
5B15
100
AcDbEntity
  8
0
  6
Continuous
370
    25
100
AcDbLine
 10
4.0
 20
50.0
 30
0.0
 11
4.1
 21
50.0
 31
0.0
  0
ARC
  5
5B43
330
5B15
100
AcDbEntity
  8
0
  6
Continuous
370
    25
100
AcDbCircle
 10
4.1
 20
49.8
 30
0.0
 40
0.1999999999999886
100
AcDbArc
 50
0.0
 51
90.0
  0
LINE
  5
5B44
330
5B15
100
AcDbEntity
  8
0
  6
Continuous
370
    25
100
AcDbLine
 10
4.3
 20
49.8
 30
0.0
 11
4.3
 21
39.022021
 31
0.0
  0
LINE
  5
5B45
330
5B15
100
AcDbEntity
  8
0
  6
Continuous
370
    25
100
AcDbLine
 10
32.5
 20
46.2
 30
0.0
 11
51.5
 21
46.2
 31
0.0
  0
LINE
  5
5B46
330
5B15
100
AcDbEntity
  8
0
  6
Continuous
370
    25
100
AcDbLine
 10
62.05
 20
54.4
 30
0.0
 11
21.95
 21
54.4
 31
0.0
  0
LINE
  5
5B47
330
5B15
100
AcDbEntity
  8
0
  6
Continuous
370
    25
100
AcDbLine
 10
62.05
 20
54.4
 30
0.0
 11
62.05
 21
49.2
 31
0.0
  0
LINE
  5
5B48
330
5B15
100
AcDbEntity
  8
0
  6
Continuous
370
    25
100
AcDbLine
 10
62.05
 20
49.2
 30
0.0
 11
21.95
 21
49.2
 31
0.0
  0
LINE
  5
5B49
330
5B15
100
AcDbEntity
  8
0
  6
Continuous
370
    25
100
AcDbLine
 10
21.95
 20
54.4
 30
0.0
 11
21.95
 21
49.2
 31
0.0
  0
ARC
  5
5B4A
330
5B15
100
AcDbEntity
  8
0
  6
Continuous
370
    25
100
AcDbCircle
 10
22.75
 20
54.4
 30
0.0
 40
2.000000000000002
100
AcDbArc
 50
90.0
 51
113.578178
  0
LINE
  5
5B4B
330
5B15
100
AcDbEntity
  8
0
  6
Continuous
370
    25
100
AcDbLine
 10
22.75
 20
56.4
 30
0.0
 11
61.25
 21
56.4
 31
0.0
  0
ARC
  5
5B4C
330
5B15
100
AcDbEntity
  8
0
  6
Continuous
370
    25
100
AcDbCircle
 10
61.25
 20
54.4
 30
0.0
 40
2.0
100
AcDbArc
 50
66.421822
 51
90.0
  0
LINE
  5
5B4D
330
5B15
100
AcDbEntity
  8
0
  6
Continuous
370
    25
100
AcDbLine
 10
62.05
 20
56.23303
 30
0.0
 11
62.05
 21
54.4
 31
0.0
  0
LINE
  5
5B4E
330
5B15
100
AcDbEntity
  8
0
  6
Continuous
370
    25
100
AcDbLine
 10
21.95
 20
54.4
 30
0.0
 11
21.95
 21
56.23303
 31
0.0
  0
ARC
  5
5B4F
330
5B15
100
AcDbEntity
  8
0
  6
Continuous
370
    25
100
AcDbCircle
 10
22.25
 20
54.9
 30
0.0
 40
0.5000000000000113
100
AcDbArc
 50
126.869898
 51
180.0
  0
ARC
  5
5B50
330
5B15
100
AcDbEntity
  8
0
  6
Continuous
370
    25
100
AcDbCircle
 10
22.75
 20
54.4
 30
0.0
 40
2.000000000000002
100
AcDbArc
 50
113.578178
 51
180.0
  0
LINE
  5
5B51
330
5B15
100
AcDbEntity
  8
0
  6
Continuous
370
    25
100
AcDbLine
 10
20.75
 20
54.4
 30
0.0
 11
20.75
 21
49.2
 31
0.0
  0
LINE
  5
5B52
330
5B15
100
AcDbEntity
  8
0
  6
Continuous
370
    25
100
AcDbLine
 10
21.75
 20
49.2
 30
0.0
 11
21.75
 21
54.9
 31
0.0
  0
LINE
  5
5B53
330
5B15
100
AcDbEntity
  8
0
  6
Continuous
370
    25
100
AcDbLine
 10
20.75
 20
49.2
 30
0.0
 11
21.75
 21
49.2
 31
0.0
  0
ARC
  5
5B54
330
5B15
100
AcDbEntity
  8
0
  6
Continuous
370
    25
100
AcDbCircle
 10
61.75
 20
54.9
 30
0.0
 40
0.5
100
AcDbArc
 50
0.0
 51
53.130102
  0
LINE
  5
5B55
330
5B15
100
AcDbEntity
  8
0
  6
Continuous
370
    25
100
AcDbLine
 10
62.25
 20
49.2
 30
0.0
 11
63.25
 21
49.2
 31
0.0
  0
LINE
  5
5B56
330
5B15
100
AcDbEntity
  8
0
  6
Continuous
370
    25
100
AcDbLine
 10
63.25
 20
54.4
 30
0.0
 11
63.25
 21
49.2
 31
0.0
  0
ARC
  5
5B57
330
5B15
100
AcDbEntity
  8
0
  6
Continuous
370
    25
100
AcDbCircle
 10
61.25
 20
54.4
 30
0.0
 40
2.0
100
AcDbArc
 50
0.0
 51
66.421822
  0
LINE
  5
5B58
330
5B15
100
AcDbEntity
  8
0
  6
Continuous
370
    25
100
AcDbLine
 10
62.25
 20
54.9
 30
0.0
 11
62.25
 21
49.2
 31
0.0
  0
LINE
  5
5B59
330
5B15
100
AcDbEntity
  8
0
  6
Continuous
370
    25
100
AcDbLine
 10
62.0
 20
38.7
 30
0.0
 11
62.0
 21
39.2
 31
0.0
  0
LINE
  5
5B5A
330
5B15
100
AcDbEntity
  8
0
  6
Continuous
370
    25
100
AcDbLine
 10
60.0
 20
38.7
 30
0.0
 11
60.0
 21
39.2
 31
0.0
  0
LINE
  5
5B5B
330
5B15
100
AcDbEntity
  8
0
  6
Continuous
370
    25
100
AcDbLine
 10
62.0
 20
39.2
 30
0.0
 11
60.0
 21
39.2
 31
0.0
  0
LINE
  5
5B5C
330
5B15
100
AcDbEntity
  8
0
  6
Continuous
370
    25
100
AcDbLine
 10
24.0
 20
38.7
 30
0.0
 11
24.0
 21
39.2
 31
0.0
  0
LINE
  5
5B5D
330
5B15
100
AcDbEntity
  8
0
  6
Continuous
370
    25
100
AcDbLine
 10
60.0
 20
39.2
 30
0.0
 11
24.0
 21
39.2
 31
0.0
  0
LINE
  5
5B5E
330
5B15
100
AcDbEntity
  8
0
  6
Continuous
370
    25
100
AcDbLine
 10
22.0
 20
38.7
 30
0.0
 11
22.0
 21
39.2
 31
0.0
  0
LINE
  5
5B5F
330
5B15
100
AcDbEntity
  8
0
  6
Continuous
370
    25
100
AcDbLine
 10
24.0
 20
39.2
 30
0.0
 11
22.0
 21
39.2
 31
0.0
  0
CIRCLE
  5
5B60
330
5B15
100
AcDbEntity
  8
0
  6
Continuous
370
    25
100
AcDbCircle
 10
17.0
 20
14.1
 30
0.0
 40
14.0
  0
LINE
  5
5B61
330
5B15
100
AcDbEntity
  8
0
  6
Continuous
370
    25
100
AcDbLine
 10
30.456403
 20
19.519007
 30
0.0
 11
31.498292
 21
13.61016
 31
0.0
  0
LINE
  5
5B62
330
5B15
100
AcDbEntity
  8
0
  6
Continuous
370
    25
100
AcDbLine
 10
31.035631
 20
19.113427
 30
0.0
 11
31.903872
 21
14.189388
 31
0.0
  0
ARC
  5
5B63
330
5B15
100
AcDbEntity
  8
0
  6
Continuous
370
    25
100
AcDbCircle
 10
8.696788
 20
38.844023
 30
0.0
 40
12.00000000000002
100
AcDbArc
 50
288.549917
 51
354.0
  0
LINE
  5
5B64
330
5B15
100
AcDbEntity
  8
0
  6
Continuous
370
    25
100
AcDbLine
 10
20.700691
 20
38.252264
 30
0.0
 11
20.631051
 21
37.589681
 31
0.0
  0
LINE
  5
5B65
330
5B15
100
AcDbEntity
  8
0
  6
Continuous
370
    25
100
AcDbLine
 10
63.0
 20
38.7
 30
0.0
 11
21.197952
 21
38.7
 31
0.0
  0
ARC
  5
5B66
330
5B15
100
AcDbEntity
  8
0
  6
Continuous
370
    25
100
AcDbCircle
 10
17.0
 20
14.1
 30
0.0
 40
14.10000000000003
100
AcDbArc
 50
108.549917
 51
26.325279
  0
LINE
  5
5B67
330
5B15
100
AcDbEntity
  8
0
  6
Continuous
370
    25
100
AcDbLine
 10
63.0
 20
38.362571
 30
0.0
 11
63.0
 21
38.7
 31
0.0
  0
ARC
  5
5B68
330
5B15
100
AcDbEntity
  8
0
  6
Continuous
370
    25
100
AcDbCircle
 10
61.0
 20
38.362571
 30
0.0
 40
2.0
100
AcDbArc
 50
284.0
 51
0.0
  0
ARC
  5
5B69
330
5B15
100
AcDbEntity
  8
0
  6
Continuous
370
    25
100
AcDbCircle
 10
21.197952
 20
38.2
 30
0.0
 40
0.5000000000000032
100
AcDbArc
 50
90.0
 51
174.0
  0
ARC
  5
5B6A
330
5B15
100
AcDbEntity
  8
0
  6
Continuous
370
    25
100
AcDbCircle
 10
35.463592
 20
23.235414
 30
0.0
 40
6.499999999999982
100
AcDbArc
 50
104.0
 51
206.325279
  0
LINE
  5
5B6B
330
5B15
100
AcDbEntity
  8
0
  6
Continuous
370
    25
100
AcDbLine
 10
33.891099
 20
29.542336
 30
0.0
 11
61.483844
 21
36.42198
 31
0.0
  0
LINE
  5
5B6C
330
5B15
100
AcDbEntity
  8
0
  6
Continuous
370
    25
100
AcDbLine
 10
35.1
 20
46.7
 30
0.0
 11
48.9
 21
46.7
 31
0.0
  0
ARC
  5
5B6D
330
5B15
100
AcDbEntity
  8
0
  6
Continuous
370
    25
100
AcDbCircle
 10
7.0
 20
27.6
 30
0.0
 40
3.933012701892224
100
AcDbArc
 50
90.0
 51
264.984981
  0
ARC
  5
5B6E
330
5B15
100
AcDbEntity
  8
0
  6
Continuous
370
    25
100
AcDbCircle
 10
7.0
 20
27.6
 30
0.0
 40
3.933012701892229
100
AcDbArc
 50
348.07273
 51
90.0
  0
ARC
  5
5B6F
330
5B15
100
AcDbEntity
  8
0
  6
Continuous
370
    25
100
AcDbCircle
 10
7.0
 20
27.6
 30
0.0
 40
3.5
100
AcDbArc
 50
90.0
 51
270.985519
  0
ARC
  5
5B70
330
5B15
100
AcDbEntity
  8
0
  6
Continuous
370
    25
100
AcDbCircle
 10
7.0
 20
27.6
 30
0.0
 40
3.500000000000018
100
AcDbArc
 50
341.800574
 51
90.0
  0
ARC
  5
5B71
330
5B15
100
AcDbEntity
  8
0
  6
Continuous
370
    25
100
AcDbCircle
 10
-7.077739
 20
15.13561
 30
0.0
 40
10.00000000000001
100
AcDbArc
 50
357.537164
 51
44.945919
  0
LINE
  5
5B72
330
5B15
100
AcDbEntity
  8
0
  6
Continuous
370
    25
100
AcDbLine
 10
16.383632
 20
29.629229
 30
0.0
 11
10.157222
 21
32.220895
 31
0.0
  0
ARC
  5
5B73
330
5B15
100
AcDbEntity
  8
0
  6
Continuous
370
    25
100
AcDbCircle
 10
2.0
 20
50.2
 30
0.0
 40
2.0
100
AcDbArc
 50
0.0
 51
90.0
  0
LINE
  5
5B74
330
5B15
100
AcDbEntity
  8
0
  6
Continuous
370
    25
100
AcDbLine
 10
0.0
 20
22.2
 30
0.0
 11
0.0
 21
52.2
 31
0.0
  0
LINE
  5
5B75
330
5B15
100
AcDbEntity
  8
0
  6
Continuous
370
    25
100
AcDbLine
 10
4.0
 20
41.45307
 30
0.0
 11
4.0
 21
50.2
 31
0.0
  0
LINE
  5
5B76
330
5B15
100
AcDbEntity
  8
0
  6
Continuous
370
    25
100
AcDbLine
 10
0.0
 20
52.2
 30
0.0
 11
2.0
 21
52.2
 31
0.0
  0
ARC
  5
5B77
330
5B15
100
AcDbEntity
  8
0
  6
Continuous
370
    25
100
AcDbCircle
 10
14.0
 20
41.45307
 30
0.0
 40
10.0
100
AcDbArc
 50
180.0
 51
247.401087
  0
LINE
  5
5B78
330
5B15
100
AcDbEntity
  8
0
  6
Continuous
370
    25
100
AcDbLine
 10
8.48506
 20
28.491401
 30
0.0
 11
8.514506
 21
26.759601
 31
0.0
  0
LINE
  5
5B79
330
5B15
100
AcDbEntity
  8
0
  6
Continuous
370
    25
100
AcDbLine
 10
8.514506
 20
26.759601
 30
0.0
 11
7.029446
 21
25.8682
 31
0.0
  0
CIRCLE
  5
5B7A
330
5B15
100
AcDbEntity
  8
0
  6
Continuous
370
    25
100
AcDbCircle
 10
7.0
 20
27.6
 30
0.0
 40
2.600000000000004
  0
LINE
  5
5B7B
330
5B15
100
AcDbEntity
  8
0
  6
Continuous
370
    25
100
AcDbLine
 10
5.51494
 20
26.708599
 30
0.0
 11
5.485494
 21
28.440399
 31
0.0
  0
LINE
  5
5B7C
330
5B15
100
AcDbEntity
  8
0
  6
Continuous
370
    25
100
AcDbLine
 10
7.029446
 20
25.8682
 30
0.0
 11
5.51494
 21
26.708599
 31
0.0
  0
LINE
  5
5B7D
330
5B15
100
AcDbEntity
  8
0
  6
Continuous
370
    25
100
AcDbLine
 10
6.970554
 20
29.3318
 30
0.0
 11
8.48506
 21
28.491401
 31
0.0
  0
LINE
  5
5B7E
330
5B15
100
AcDbEntity
  8
0
  6
Continuous
370
    25
100
AcDbLine
 10
5.485494
 20
28.440399
 30
0.0
 11
6.970554
 21
29.3318
 31
0.0
  0
ARC
  5
5B7F
330
5B15
100
AcDbEntity
  8
0
  6
Continuous
370
    25
100
AcDbCircle
 10
7.0
 20
27.6
 30
0.0
 40
2.900000000000023
100
AcDbArc
 50
326.03346
 51
287.024251
  0
ARC
  5
5B80
330
5B15
100
AcDbEntity
  8
0
  6
Continuous
370
    25
100
AcDbCircle
 10
7.0
 20
27.6
 30
0.0
 40
3.449999999999999
100
AcDbArc
 50
229.949666
 51
270.974105
  0
ARC
  5
5B81
330
5B15
100
AcDbEntity
  8
0
  6
Continuous
370
    25
100
AcDbCircle
 10
7.0
 20
27.6
 30
0.0
 40
1.500000000000021
100
AcDbArc
 50
300.974105
 51
0.974105
  0
ARC
  5
5B82
330
5B15
100
AcDbEntity
  8
0
  6
Continuous
370
    25
100
AcDbCircle
 10
7.0
 20
27.6
 30
0.0
 40
1.499999999999998
100
AcDbArc
 50
180.974105
 51
240.974105
  0
ARC
  5
5B83
330
5B15
100
AcDbEntity
  8
0
  6
Continuous
370
    25
100
AcDbCircle
 10
7.0
 20
27.6
 30
0.0
 40
1.500000000000005
100
AcDbArc
 50
60.974105
 51
120.974105
  0
ARC
  5
5B84
330
5B15
100
AcDbEntity
  8
0
  6
Continuous
370
    25
100
AcDbCircle
 10
7.0
 20
27.6
 30
0.0
 40
1.500000000000021
100
AcDbArc
 50
0.974105
 51
60.974105
  0
ARC
  5
5B85
330
5B15
100
AcDbEntity
  8
0
  6
Continuous
370
    25
100
AcDbCircle
 10
7.0
 20
27.6
 30
0.0
 40
1.500000000000003
100
AcDbArc
 50
120.974105
 51
180.974105
  0
ARC
  5
5B86
330
5B15
100
AcDbEntity
  8
0
  6
Continuous
370
    25
100
AcDbCircle
 10
7.0
 20
27.6
 30
0.0
 40
1.50000000000001
100
AcDbArc
 50
240.974105
 51
300.974105
  0
LINE
  5
5B87
330
5B15
100
AcDbEntity
  8
0
  6
Continuous
370
    25
100
AcDbLine
 10
4.771103
 20
25.374125
 30
0.0
 11
4.558827
 21
25.162137
 31
0.0
  0
ARC
  5
5B88
330
5B15
100
AcDbEntity
  8
0
  6
Continuous
370
    25
100
AcDbCircle
 10
4.558827
 20
25.162137
 30
0.0
 40
0.2999999999999949
100
AcDbArc
 50
319.949666
 51
44.961124
  0
LINE
  5
5B89
330
5B15
100
AcDbEntity
  8
0
  6
Continuous
370
    25
100
AcDbLine
 10
4.558827
 20
25.162137
 30
0.0
 11
4.788471
 21
24.969099
 31
0.0
  0
ARC
  5
5B8A
330
5B15
100
AcDbEntity
  8
0
  6
Continuous
370
    25
100
AcDbCircle
 10
7.0
 20
27.6
 30
0.0
 40
3.150000000000007
100
AcDbArc
 50
334.632833
 51
224.961124
  0
LINE
  5
5B8B
330
5B15
100
AcDbEntity
  8
0
  6
Continuous
370
    25
100
AcDbLine
 10
4.788471
 20
24.969099
 30
0.0
 11
4.747889
 21
24.920822
 31
0.0
  0
LINE
  5
5B8C
330
5B15
100
AcDbEntity
  8
0
  6
Continuous
370
    25
100
AcDbLine
 10
4.1
 20
40.042397
 30
0.0
 11
4.1
 21
50.0
 31
0.0
  0
ARC
  5
5B8D
330
5B15
100
AcDbEntity
  8
0
  6
Continuous
370
    25
100
AcDbCircle
 10
7.0
 20
27.6
 30
0.0
 40
3.450000000000023
100
AcDbArc
 50
341.195958
 51
224.961124
  0
LINE
  5
5B8E
330
5B15
100
AcDbEntity
  8
0
  6
Continuous
370
    25
100
AcDbLine
 10
4.526533
 20
25.12372
 30
0.0
 11
4.558827
 21
25.162137
 31
0.0
  0
ENDBLK
  5
5B90
330
5B15
100
AcDbEntity
  8
0
100
AcDbBlockEnd
  0
ENDSEC
  0
SECTION
  2
ENTITIES
  0
TEXT
  5
7D
330
5663
100
AcDbEntity
  8
0
  6
Continuous
 62
     7
100
AcDbText
 10
359.668321
 20
554.007741
 30
0.0
 40
30.0
  1
835E10N
 41
0.75
  7
SLDTEXTSTYLE0
100
AcDbText
  0
TEXT
  5
7F
330
5663
100
AcDbEntity
  8
0
  6
Continuous
 62
     7
100
AcDbText
 10
121.007335
 20
501.755857
 30
0.0
 40
23.8125
  1
835E10NL
 41
0.75
  7
SLDTEXTSTYLE0
100
AcDbText
  0
CIRCLE
  5
195
330
5663
100
AcDbEntity
  8
ASSI
100
AcDbCircle
 10
298.718023
 20
352.795976
 30
0.0
 40
5.200000000000114
  0
CIRCLE
  5
196
330
5663
100
AcDbEntity
  8
ASSI
100
AcDbCircle
 10
298.718023
 20
320.295976
 30
0.0
 40
5.200000000000131
  0
CIRCLE
  5
197
330
5663
100
AcDbEntity
  8
ASSI
100
AcDbCircle
 10
298.718023
 20
287.795976
 30
0.0
 40
5.200000000000114
  0
INSERT
  5
1A3
330
5663
100
AcDbEntity
  8
ASSI
100
AcDbBlockReference
  2
SW_CENTERMARKSYMBOL_3
 10
298.718023
 20
352.795976
 30
0.0
  0
INSERT
  5
1AF
330
5663
100
AcDbEntity
  8
ASSI
100
AcDbBlockReference
  2
SW_CENTERMARKSYMBOL_4
 10
298.718023
 20
320.295976
 30
0.0
  0
INSERT
  5
1BB
330
5663
100
AcDbEntity
  8
ASSI
100
AcDbBlockReference
  2
SW_CENTERMARKSYMBOL_5
 10
298.718023
 20
287.795976
 30
0.0
  0
LINE
  5
1BC
330
5663
100
AcDbEntity
  8
ASSI
100
AcDbLine
 10
292.418023
 20
432.295976
 30
0.0
 11
307.418023
 21
432.295976
 31
0.0
  0
LINE
  5
1BD
330
5663
100
AcDbEntity
  8
ASSI
100
AcDbLine
 10
292.418023
 20
387.295976
 30
0.0
 11
307.418023
 21
387.295976
 31
0.0
  0
LINE
  5
1BE
330
5663
100
AcDbEntity
  8
ASSI
100
AcDbLine
 10
328.518023
 20
459.295976
 30
0.0
 11
328.518023
 21
265.502295
 31
0.0
  0
TEXT
  5
306
330
5663
100
AcDbEntity
  8
0
  6
Continuous
 62
     7
100
AcDbText
 10
606.873256
 20
500.806129
 30
0.0
 40
23.8125
  1
835E10NR
 41
0.75
  7
SLDTEXTSTYLE0
100
AcDbText
  0
LINE
  5
D05
330
5663
100
AcDbEntity
  8
0
  6
Continuous
 62
     7
100
AcDbLine
 10
344.174713
 20
89.510497
 30
0.0
 11
343.774713
 21
89.331182
 31
0.0
  0
LINE
  5
D06
330
5663
100
AcDbEntity
  8
0
  6
Continuous
 62
     7
100
AcDbLine
 10
341.006155
 20
84.606726
 30
0.0
 11
341.006155
 21
21.821547
 31
0.0
  0
LINE
  5
D07
330
5663
100
AcDbEntity
  8
0
  6
Continuous
 62
     7
100
AcDbLine
 10
348.683492
 20
15.59594
 30
0.0
 11
349.083492
 21
15.775255
 31
0.0
  0
LINE
  5
D08
330
5663
100
AcDbEntity
  8
0
  6
Continuous
 62
     7
100
AcDbLine
 10
299.621545
 20
94.368285
 30
0.0
 11
299.621545
 21
12.264589
 31
0.0
  0
LINE
  5
D09
330
5663
100
AcDbEntity
  8
0
  6
Continuous
 62
     7
100
AcDbLine
 10
326.915499
 20
82.591277
 30
0.0
 11
346.965499
 21
91.579446
 31
0.0
  0
LINE
  5
D0A
330
5663
100
AcDbEntity
  8
0
  6
Continuous
 62
     7
100
AcDbLine
 10
347.747369
 20
92.452401
 30
0.0
 11
347.747369
 21
172.720837
 31
0.0
  0
LINE
  5
D0B
330
5663
100
AcDbEntity
  8
0
  6
Continuous
 62
     7
100
AcDbLine
 10
313.230193
 20
86.136882
 30
0.0
 11
313.663206
 21
86.072177
 31
0.0
  0
LINE
  5
D0C
330
5663
100
AcDbEntity
  8
0
  6
Continuous
 62
     7
100
AcDbLine
 10
332.25436
 20
174.405572
 30
0.0
 11
331.821347
 21
174.470277
 31
0.0
  0
ARC
  5
D0D
330
5663
100
AcDbEntity
  8
0
  6
Continuous
 62
     7
100
AcDbCircle
 10
313.721545
 20
151.969661
 30
0.0
 40
34.16666666666678
100
AcDbArc
 50
70.799566
 51
109.200434
  0
LINE
  5
D0E
330
5663
100
AcDbEntity
  8
0
  6
Continuous
 62
     7
100
AcDbLine
 10
299.721545
 20
182.07435
 30
0.0
 11
299.721545
 21
180.142498
 31
0.0
  0
LINE
  5
D0F
330
5663
100
AcDbEntity
  8
0
  6
Continuous
 62
     7
100
AcDbLine
 10
327.721545
 20
180.142498
 30
0.0
 11
327.721545
 21
182.07435
 31
0.0
  0
LINE
  5
D10
330
5663
100
AcDbEntity
  8
0
  6
Continuous
 62
     7
100
AcDbLine
 10
327.721545
 20
10.332738
 30
0.0
 11
327.721545
 21
10.441223
 31
0.0
  0
LINE
  5
D11
330
5663
100
AcDbEntity
  8
0
  6
Continuous
 62
     7
100
AcDbLine
 10
299.721545
 20
11.83073
 30
0.0
 11
299.721545
 21
10.332738
 31
0.0
  0
ARC
  5
D12
330
5663
100
AcDbEntity
  8
0
  6
Continuous
 62
     7
100
AcDbCircle
 10
313.721545
 20
40.437426
 30
0.0
 40
34.16666666666676
100
AcDbArc
 50
250.799566
 51
289.200434
  0
LINE
  5
D13
330
5663
100
AcDbEntity
  8
0
  6
Continuous
 62
     7
100
AcDbLine
 10
299.721545
 20
97.604943
 30
0.0
 11
299.721545
 21
94.368285
 31
0.0
  0
LINE
  5
D14
330
5663
100
AcDbEntity
  8
0
  6
Continuous
 62
     7
100
AcDbLine
 10
310.733548
 20
167.14036
 30
0.0
 11
310.733548
 21
85.036665
 31
0.0
  0
LINE
  5
D15
330
5663
100
AcDbEntity
  8
0
  6
Continuous
 62
     7
100
AcDbLine
 10
299.621545
 20
180.142498
 30
0.0
 11
299.621545
 21
98.038803
 31
0.0
  0
LINE
  5
D16
330
5663
100
AcDbEntity
  8
0
  6
Continuous
 62
     7
100
AcDbLine
 10
327.821545
 20
177.897603
 30
0.0
 11
327.821545
 21
180.142498
 31
0.0
  0
LINE
  5
D17
330
5663
100
AcDbEntity
  8
0
  6
Continuous
 62
     7
100
AcDbLine
 10
332.993782
 20
170.85439
 30
0.0
 11
332.993782
 21
176.082783
 31
0.0
  0
LWPOLYLINE
  5
D18
330
5663
100
AcDbEntity
  8
0
  6
Continuous
 62
     7
100
AcDbPolyline
 90
       15
 70
   128
 43
0.0
 10
341.03295
 20
84.632608
 10
341.163228
 20
85.902772
 10
341.547531
 20
87.070311
 10
342.166587
 20
88.076678
 10
342.989354
 20
88.871411
 10
343.974576
 20
89.414657
 10
345.07285
 20
89.679177
 10
346.229102
 20
89.651705
 10
347.385355
 20
89.333621
 10
348.483628
 20
88.740873
 10
349.46885
 20
87.903185
 10
350.291618
 20
86.862561
 10
350.910674
 20
85.671184
 10
351.294976
 20
84.388793
 10
351.425255
 20
83.079693
  0
ARC
  5
D19
330
5663
100
AcDbEntity
  8
0
  6
Continuous
 62
     7
100
AcDbCircle
 10
351.249273
 20
83.638045
 30
0.0
 40
0.5854279671158104
100
AcDbArc
 50
260.440437
 51
287.493824
  0
LWPOLYLINE
  5
D1A
330
5663
100
AcDbEntity
  8
0
  6
Continuous
 62
     7
100
AcDbPolyline
 90
       12
 70
   128
 43
0.0
 10
351.15205
 20
83.060746
 10
351.026114
 20
84.326209
 10
350.654621
 20
85.565854
 10
350.056201
 20
86.717519
 10
349.260859
 20
87.723455
 10
348.308477
 20
88.53322
 10
347.246813
 20
89.10621
 10
346.129102
 20
89.413691
 10
345.011391
 20
89.440247
 10
343.949727
 20
89.184545
 10
342.997346
 20
88.659407
 10
342.886366
 20
88.574349
  0
ARC
  5
D1B
330
5663
100
AcDbEntity
  8
0
  6
Continuous
 62
     7
100
AcDbCircle
 10
341.040006
 20
84.598492
 30
0.0
 40
0.0348378808993953
100
AcDbArc
 50
101.685304
 51
166.328751
  0
LINE
  5
D1C
330
5663
100
AcDbEntity
  8
0
  6
Continuous
 62
     7
100
AcDbLine
 10
351.15205
 20
20.275568
 30
0.0
 11
351.15205
 21
83.060746
 31
0.0
  0
LWPOLYLINE
  5
D1D
330
5663
100
AcDbEntity
  8
0
  6
Continuous
 62
     7
100
AcDbPolyline
 90
       10
 70
   128
 43
0.0
 10
341.106155
 20
21.776718
 10
341.232091
 20
20.511255
 10
341.603583
 20
19.271611
 10
342.202004
 20
18.119946
 10
342.997346
 20
17.11401
 10
343.949727
 20
16.304245
 10
345.011391
 20
15.731255
 10
346.129102
 20
15.423773
 10
347.246813
 20
15.397218
 10
348.234668
 20
15.625125
  0
LINE
  5
D1E
330
5663
100
AcDbEntity
  8
0
  6
Continuous
 62
     7
100
AcDbLine
 10
341.106155
 20
84.561897
 30
0.0
 11
341.106155
 21
21.776718
 31
0.0
  0
LWPOLYLINE
  5
D1F
330
5663
100
AcDbEntity
  8
0
  6
Continuous
 62
     7
100
AcDbPolyline
 90
       11
 70
   128
 43
0.0
 10
344.174713
 20
89.510497
 10
344.374576
 20
89.593972
 10
345.47285
 20
89.858492
 10
346.629102
 20
89.83102
 10
347.785355
 20
89.512936
 10
348.883628
 20
88.920188
 10
349.86885
 20
88.0825
 10
350.691618
 20
87.041876
 10
351.310674
 20
85.850499
 10
351.694976
 20
84.568108
 10
351.825255
 20
83.259008
  0
LINE
  5
D20
330
5663
100
AcDbEntity
  8
0
  6
Continuous
 62
     7
100
AcDbLine
 10
351.825255
 20
83.259008
 30
0.0
 11
351.425255
 21
83.079693
 31
0.0
  0
LINE
  5
D21
330
5663
100
AcDbEntity
  8
0
  6
Continuous
 62
     7
100
AcDbLine
 10
351.425255
 20
83.079693
 30
0.0
 11
351.425255
 21
20.294515
 31
0.0
  0
ARC
  5
D22
330
5663
100
AcDbEntity
  8
0
  6
Continuous
 62
     7
100
AcDbCircle
 10
351.249273
 20
20.852866
 30
0.0
 40
0.5854279671155621
100
AcDbArc
 50
260.440437
 51
287.493824
  0
LINE
  5
D23
330
5663
100
AcDbEntity
  8
0
  6
Continuous
 62
     7
100
AcDbLine
 10
351.825255
 20
20.47383
 30
0.0
 11
351.425255
 21
20.294515
 31
0.0
  0
LINE
  5
D24
330
5663
100
AcDbEntity
  8
0
  6
Continuous
 62
     7
100
AcDbLine
 10
351.825255
 20
83.259008
 30
0.0
 11
351.825255
 21
20.47383
 31
0.0
  0
LWPOLYLINE
  5
D25
330
5663
100
AcDbEntity
  8
0
  6
Continuous
 62
     7
100
AcDbPolyline
 90
       15
 70
   128
 43
0.0
 10
351.425255
 20
20.294515
 10
351.294976
 20
19.02435
 10
350.910674
 20
17.856811
 10
350.291618
 20
16.850444
 10
349.46885
 20
16.055711
 10
348.483628
 20
15.512465
 10
347.385355
 20
15.247945
 10
346.229102
 20
15.275417
 10
345.07285
 20
15.593501
 10
343.974576
 20
16.186249
 10
342.989354
 20
17.023937
 10
342.166587
 20
18.064561
 10
341.547531
 20
19.255938
 10
341.163228
 20
20.538329
 10
341.03295
 20
21.847429
  0
ARC
  5
D26
330
5663
100
AcDbEntity
  8
0
  6
Continuous
 62
     7
100
AcDbCircle
 10
346.881313
 20
20.209533
 30
0.0
 40
4.951000907735439
100
AcDbArc
 50
296.4102
 51
3.060046
  0
LWPOLYLINE
  5
D27
330
5663
100
AcDbEntity
  8
0
  6
Continuous
 62
     7
100
AcDbPolyline
 90
       13
 70
   128
 43
0.0
 10
310.733548
 20
90.801819
 10
310.652523
 20
90.806431
 10
308.691426
 20
90.959058
 10
306.836432
 20
91.183598
 10
305.126672
 20
91.475316
 10
303.59821
 20
91.828057
 10
302.283288
 20
92.234381
 10
301.209642
 20
92.685717
 10
300.399919
 20
93.172544
 10
299.871199
 20
93.684595
 10
299.634636
 20
94.211067
 10
299.695219
 20
94.740855
 10
299.721545
 20
94.802144
  0
LINE
  5
D28
330
5663
100
AcDbEntity
  8
0
  6
Continuous
 62
     7
100
AcDbLine
 10
347.747369
 20
94.364426
 30
0.0
 11
355.217113
 21
93.248228
 31
0.0
  0
LINE
  5
D29
330
5663
100
AcDbEntity
  8
0
  6
Continuous
 62
     7
100
AcDbLine
 10
355.217113
 20
93.248228
 30
0.0
 11
354.717113
 21
93.024084
 31
0.0
  0
ARC
  5
D2A
330
5663
100
AcDbEntity
  8
0
  6
Continuous
 62
     7
100
AcDbCircle
 10
352.957299
 20
98.607599
 30
0.0
 40
5.854279671156551
100
AcDbArc
 50
260.440437
 51
287.493824
  0
LINE
  5
D2B
330
5663
100
AcDbEntity
  8
0
  6
Continuous
 62
     7
100
AcDbLine
 10
347.747369
 20
93.46785
 30
0.0
 11
351.985062
 21
92.834615
 31
0.0
  0
LWPOLYLINE
  5
D2C
330
5663
100
AcDbEntity
  8
0
  6
Continuous
 62
     7
100
AcDbPolyline
 90
       17
 70
   128
 43
0.0
 10
299.621545
 20
12.264589
 10
299.634636
 20
12.107372
 10
299.871199
 20
11.5809
 10
300.399919
 20
11.068849
 10
301.209642
 20
10.582021
 10
302.283288
 20
10.130685
 10
303.59821
 20
9.724361
 10
305.126672
 20
9.37162
 10
306.836432
 20
9.079903
 10
308.691426
 20
8.855363
 10
310.652523
 20
8.702736
 10
312.678358
 20
8.625242
 10
314.726197
 20
8.624516
 10
316.752845
 20
8.700573
 10
318.715551
 20
8.851808
 10
320.572915
 20
9.075032
 10
322.285757
 20
9.365536
  0
LINE
  5
D2D
330
5663
100
AcDbEntity
  8
0
  6
Continuous
 62
     7
100
AcDbLine
 10
322.285757
 20
9.365536
 30
0.0
 11
333.696562
 21
11.623618
 31
0.0
  0
LWPOLYLINE
  5
D2E
330
5663
100
AcDbEntity
  8
0
  6
Continuous
 62
     7
100
AcDbPolyline
 90
      129
 70
     0
 43
0.0
 10
344.770471
 20
15.514526
 10
344.719879
 20
15.54236
 10
344.669294
 20
15.570262
 10
344.618725
 20
15.5983
 10
344.568179
 20
15.626543
 10
344.517664
 20
15.655058
 10
344.467187
 20
15.683914
 10
344.416757
 20
15.713179
 10
344.366381
 20
15.742921
 10
344.316067
 20
15.773195
 10
344.265823
 20
15.803997
 10
344.215656
 20
15.835306
 10
344.165573
 20
15.867098
 10
344.115584
 20
15.899353
 10
344.065694
 20
15.932048
 10
344.015913
 20
15.965162
 10
343.966247
 20
15.998673
 10
343.916704
 20
16.03256
 10
343.867292
 20
16.066821
 10
343.818017
 20
16.101455
 10
343.768886
 20
16.136466
 10
343.719908
 20
16.171854
 10
343.671088
 20
16.207621
 10
343.622433
 20
16.24377
 10
343.573952
 20
16.280301
 10
343.52565
 20
16.317216
 10
343.477535
 20
16.354514
 10
343.429614
 20
16.392191
 10
343.381892
 20
16.430242
 10
343.334376
 20
16.468663
 10
343.287074
 20
16.507449
 10
343.239991
 20
16.546596
 10
343.193134
 20
16.5861
 10
343.14651
 20
16.625956
 10
343.100125
 20
16.666161
 10
343.053984
 20
16.706711
 10
343.008096
 20
16.747605
 10
342.962464
 20
16.788839
 10
342.917095
 20
16.830412
 10
342.871996
 20
16.87232
 10
342.827171
 20
16.914563
 10
342.782628
 20
16.957136
 10
342.738372
 20
17.000038
 10
342.694409
 20
17.043265
 10
342.650744
 20
17.086816
 10
342.607384
 20
17.130687
 10
342.564334
 20
17.174876
 10
342.521599
 20
17.219379
 10
342.479186
 20
17.264195
 10
342.4371
 20
17.30932
 10
342.395347
 20
17.354752
 10
342.353932
 20
17.400488
 10
342.312861
 20
17.446526
 10
342.27214
 20
17.492864
 10
342.231773
 20
17.539498
 10
342.191767
 20
17.586426
 10
342.152126
 20
17.633647
 10
342.112857
 20
17.681157
 10
342.073965
 20
17.728955
 10
342.035455
 20
17.777037
 10
341.997332
 20
17.825401
 10
341.959602
 20
17.874046
 10
341.922271
 20
17.922968
 10
341.885342
 20
17.972166
 10
341.848823
 20
18.021636
 10
341.812717
 20
18.071377
 10
341.777031
 20
18.121385
 10
341.74177
 20
18.17166
 10
341.706939
 20
18.222197
 10
341.672543
 20
18.272996
 10
341.638589
 20
18.324052
 10
341.605082
 20
18.375363
 10
341.572028
 20
18.426927
 10
341.539431
 20
18.478742
 10
341.507297
 20
18.530805
 10
341.475632
 20
18.583112
 10
341.444441
 20
18.635662
 10
341.413729
 20
18.688452
 10
341.383499
 20
18.741479
 10
341.353757
 20
18.79474
 10
341.324507
 20
18.848232
 10
341.295754
 20
18.901953
 10
341.267503
 20
18.9559
 10
341.239758
 20
19.01007
 10
341.212525
 20
19.064461
 10
341.18581
 20
19.119067
 10
341.159621
 20
19.173887
 10
341.133966
 20
19.228916
 10
341.108851
 20
19.284151
 10
341.084285
 20
19.339587
 10
341.060274
 20
19.395221
 10
341.036826
 20
19.45105
 10
341.013948
 20
19.50707
 10
340.991644
 20
19.563277
 10
340.969911
 20
19.619668
 10
340.948745
 20
19.67624
 10
340.928143
 20
19.732988
 10
340.9081
 20
19.78991
 10
340.888613
 20
19.847003
 10
340.869679
 20
19.904262
 10
340.851293
 20
19.961684
 10
340.833453
 20
20.019267
 10
340.816164
 20
20.077005
 10
340.799447
 20
20.134892
 10
340.783323
 20
20.192923
 10
340.767815
 20
20.251091
 10
340.752943
 20
20.30939
 10
340.738729
 20
20.367814
 10
340.725195
 20
20.426356
 10
340.712363
 20
20.485011
 10
340.700253
 20
20.543773
 10
340.688887
 20
20.602635
 10
340.678287
 20
20.661591
 10
340.668475
 20
20.720636
 10
340.659471
 20
20.779762
 10
340.651292
 20
20.838964
 10
340.6439
 20
20.898236
 10
340.637234
 20
20.957573
 10
340.631235
 20
21.016969
 10
340.625842
 20
21.07642
 10
340.620993
 20
21.135919
 10
340.61663
 20
21.195461
 10
340.61269
 20
21.255041
 10
340.609114
 20
21.314653
 10
340.60584
 20
21.374293
 10
340.602809
 20
21.433954
 10
340.59996
 20
21.493631
 10
340.597231
 20
21.553319
 10
340.594564
 20
21.613012
  0
LINE
  5
D2F
330
5663
100
AcDbEntity
  8
0
  6
Continuous
 62
     7
100
AcDbLine
 10
344.770471
 20
15.514526
 30
0.0
 11
344.770471
 21
11.808991
 31
0.0
  0
LWPOLYLINE
  5
D30
330
5663
100
AcDbEntity
  8
0
  6
Continuous
 62
     7
100
AcDbPolyline
 90
      129
 70
     0
 43
0.0
 10
340.594564
 20
84.784561
 10
340.596137
 20
84.844131
 10
340.597814
 20
84.903691
 10
340.599698
 20
84.963232
 10
340.601895
 20
85.022746
 10
340.604507
 20
85.082222
 10
340.607638
 20
85.141652
 10
340.611393
 20
85.201026
 10
340.615876
 20
85.260335
 10
340.621172
 20
85.319569
 10
340.627279
 20
85.378723
 10
340.634167
 20
85.437789
 10
340.641806
 20
85.496761
 10
340.650166
 20
85.555633
 10
340.659218
 20
85.614399
 10
340.668931
 20
85.673052
 10
340.679276
 20
85.731586
 10
340.690225
 20
85.789995
 10
340.701773
 20
85.848272
 10
340.713922
 20
85.906409
 10
340.726677
 20
85.9644
 10
340.740041
 20
86.022237
 10
340.754016
 20
86.079914
 10
340.768607
 20
86.137423
 10
340.783817
 20
86.194757
 10
340.799649
 20
86.251909
 10
340.816103
 20
86.308873
 10
340.833173
 20
86.365645
 10
340.850854
 20
86.422218
 10
340.869139
 20
86.478589
 10
340.888025
 20
86.534752
 10
340.907505
 20
86.590703
 10
340.927573
 20
86.646436
 10
340.948225
 20
86.701946
 10
340.969455
 20
86.757229
 10
340.991257
 20
86.812278
 10
341.013626
 20
86.867087
 10
341.036558
 20
86.921649
 10
341.060045
 20
86.975959
 10
341.084083
 20
87.03001
 10
341.108668
 20
87.083795
 10
341.133792
 20
87.137309
 10
341.159451
 20
87.190544
 10
341.18564
 20
87.243496
 10
341.212352
 20
87.296157
 10
341.239584
 20
87.348521
 10
341.267329
 20
87.400582
 10
341.295581
 20
87.452334
 10
341.324337
 20
87.50377
 10
341.353589
 20
87.554884
 10
341.383334
 20
87.60567
 10
341.413565
 20
87.656124
 10
341.444279
 20
87.706242
 10
341.475469
 20
87.756022
 10
341.507131
 20
87.80546
 10
341.53926
 20
87.854553
 10
341.571852
 20
87.903298
 10
341.604901
 20
87.951691
 10
341.638402
 20
87.999728
 10
341.67235
 20
88.047407
 10
341.706739
 20
88.094721
 10
341.741565
 20
88.141666
 10
341.776822
 20
88.188237
 10
341.812504
 20
88.23443
 10
341.848606
 20
88.280238
 10
341.885122
 20
88.325658
 10
341.922048
 20
88.370684
 10
341.959377
 20
88.415312
 10
341.997104
 20
88.459537
 10
342.035224
 20
88.503356
 10
342.073732
 20
88.546762
 10
342.112621
 20
88.589754
 10
342.151888
 20
88.632324
 10
342.191525
 20
88.674471
 10
342.231529
 20
88.716188
 10
342.271893
 20
88.757473
 10
342.312613
 20
88.798319
 10
342.353682
 20
88.838723
 10
342.395094
 20
88.87868
 10
342.436845
 20
88.918185
 10
342.478929
 20
88.957233
 10
342.521339
 20
88.995821
 10
342.564071
 20
89.033943
 10
342.607119
 20
89.071594
 10
342.650477
 20
89.10877
 10
342.69414
 20
89.145467
 10
342.738102
 20
89.181681
 10
342.782356
 20
89.217407
 10
342.826898
 20
89.252642
 10
342.871721
 20
89.28738
 10
342.916821
 20
89.321619
 10
342.96219
 20
89.355354
 10
343.007824
 20
89.388581
 10
343.053716
 20
89.421295
 10
343.099859
 20
89.453489
 10
343.146248
 20
89.485158
 10
343.192874
 20
89.516296
 10
343.23973
 20
89.546896
 10
343.286811
 20
89.576952
 10
343.334109
 20
89.606457
 10
343.381618
 20
89.635407
 10
343.42933
 20
89.663794
 10
343.477239
 20
89.691617
 10
343.525341
 20
89.718879
 10
343.57363
 20
89.745586
 10
343.622102
 20
89.77174
 10
343.670751
 20
89.797345
 10
343.719572
 20
89.822407
 10
343.76856
 20
89.846928
 10
343.817708
 20
89.870899
 10
343.867008
 20
89.894305
 10
343.91645
 20
89.917129
 10
343.966025
 20
89.939354
 10
344.015726
 20
89.960964
 10
344.065544
 20
89.981943
 10
344.115469
 20
90.002274
 10
344.165494
 20
90.02194
 10
344.215608
 20
90.040926
 10
344.265805
 20
90.059214
 10
344.316075
 20
90.076788
 10
344.366409
 20
90.093632
 10
344.416799
 20
90.109729
 10
344.467237
 20
90.125079
 10
344.517714
 20
90.139769
 10
344.568225
 20
90.153907
 10
344.618763
 20
90.167604
 10
344.669322
 20
90.18097
 10
344.719893
 20
90.194116
 10
344.770471
 20
90.207151
  0
LINE
  5
D31
330
5663
100
AcDbEntity
  8
0
  6
Continuous
 62
     7
100
AcDbLine
 10
340.594564
 20
21.613012
 30
0.0
 11
340.594564
 21
84.784561
 31
0.0
  0
ARC
  5
D32
330
5663
100
AcDbEntity
  8
0
  6
Continuous
 62
     7
100
AcDbCircle
 10
339.810015
 20
-22.723019
 30
0.0
 40
34.88647021178196
100
AcDbArc
 50
81.825493
 51
100.092538
  0
LINE
  5
D33
330
5663
100
AcDbEntity
  8
0
  6
Continuous
 62
     7
100
AcDbLine
 10
351.985062
 20
20.196993
 30
0.0
 11
351.985062
 21
10.73092
 31
0.0
  0
LINE
  5
D34
330
5663
100
AcDbEntity
  8
0
  6
Continuous
 62
     7
100
AcDbLine
 10
351.985062
 20
83.368542
 30
0.0
 11
351.985062
 21
20.196993
 31
0.0
  0
LINE
  5
D35
330
5663
100
AcDbEntity
  8
0
  6
Continuous
 62
     7
100
AcDbLine
 10
351.985062
 20
92.834615
 30
0.0
 11
351.985062
 21
83.368542
 31
0.0
  0
LINE
  5
D36
330
5663
100
AcDbEntity
  8
0
  6
Continuous
 62
     7
100
AcDbLine
 10
354.717113
 20
93.024084
 30
0.0
 11
354.717113
 21
10.920388
 31
0.0
  0
ARC
  5
D37
330
5663
100
AcDbEntity
  8
0
  6
Continuous
 62
     7
100
AcDbCircle
 10
352.957299
 20
16.503904
 30
0.0
 40
5.854279671156664
100
AcDbArc
 50
260.440437
 51
287.493824
  0
ARC
  5
D38
330
5663
100
AcDbEntity
  8
0
  6
Continuous
 62
     7
100
AcDbCircle
 10
346.158924
 20
85.539937
 30
0.0
 40
4.912284441519151
100
AcDbArc
 50
115.398438
 51
167.077114
  0
LWPOLYLINE
  5
D39
330
5663
100
AcDbEntity
  8
0
  6
Continuous
 62
     7
100
AcDbPolyline
 90
        9
 70
   128
 43
0.0
 10
351.985062
 20
83.368542
 10
351.832071
 20
84.822373
 10
351.381679
 20
86.240393
 10
350.659143
 20
87.543076
 10
349.704986
 20
88.657365
 10
348.572719
 20
89.520768
 10
347.325842
 20
90.084864
 10
346.034281
 20
90.318017
 10
344.770471
 20
90.207151
  0
LINE
  5
D3A
330
5663
100
AcDbEntity
  8
0
  6
Continuous
 62
     7
100
AcDbLine
 10
355.217113
 20
93.248228
 30
0.0
 11
355.217113
 21
11.144532
 31
0.0
  0
LINE
  5
D3B
330
5663
100
AcDbEntity
  8
0
  6
Continuous
 62
     7
100
AcDbLine
 10
355.217113
 20
11.144532
 30
0.0
 11
354.717113
 21
10.920388
 31
0.0
  0
ARC
  5
D3C
330
5663
100
AcDbEntity
  8
0
  6
Continuous
 62
     7
100
AcDbCircle
 10
347.269085
 20
20.193659
 30
0.0
 40
5.255379123967116
100
AcDbArc
 50
222.93867
 51
291.629228
  0
ARC
  5
D3D
330
5663
100
AcDbEntity
  8
0
  6
Continuous
 62
     7
100
AcDbCircle
 10
347.137653
 20
19.766486
 30
0.0
 40
4.866488941536227
100
AcDbArc
 50
240.894129
 51
5.075224
  0
LINE
  5
D3E
330
5663
100
AcDbEntity
  8
0
  6
Continuous
 62
     7
100
AcDbLine
 10
344.770471
 20
11.808991
 30
0.0
 11
351.985062
 21
10.73092
 31
0.0
  0
LWPOLYLINE
  5
D3F
330
5663
100
AcDbEntity
  8
0
  6
Continuous
 62
     7
100
AcDbPolyline
 90
       13
 70
   128
 43
0.0
 10
310.733548
 20
163.743167
 10
310.587811
 20
163.686022
 10
309.852093
 20
163.59357
 10
309.116375
 20
163.795225
 10
308.492664
 20
164.260287
 10
308.075913
 20
164.917954
 10
307.92957
 20
165.668102
 10
308.075913
 20
166.396529
 10
308.492664
 20
166.992337
 10
309.116375
 20
167.364821
 10
309.852093
 20
167.457273
 10
310.587811
 20
167.255619
 10
310.737848
 20
167.174286
  0
ARC
  5
D40
330
5663
100
AcDbEntity
  8
0
  6
Continuous
 62
     7
100
AcDbCircle
 10
310.023841
 20
165.792638
 30
0.0
 40
2.919218018043938
100
AcDbArc
 50
134.442914
 51
230.363434
  0
LINE
  5
D41
330
5663
100
AcDbEntity
  8
0
  6
Continuous
 62
     7
100
AcDbLine
 10
310.733548
 20
166.621659
 30
0.0
 11
309.852093
 21
167.198454
 31
0.0
  0
LINE
  5
D42
330
5663
100
AcDbEntity
  8
0
  6
Continuous
 62
     7
100
AcDbLine
 10
309.852093
 20
167.198454
 30
0.0
 11
308.410201
 21
166.468948
 31
0.0
  0
LINE
  5
D43
330
5663
100
AcDbEntity
  8
0
  6
Continuous
 62
     7
100
AcDbLine
 10
308.410201
 20
166.468948
 30
0.0
 11
308.410201
 21
164.795916
 31
0.0
  0
LINE
  5
D44
330
5663
100
AcDbEntity
  8
0
  6
Continuous
 62
     7
100
AcDbLine
 10
308.410201
 20
164.795916
 30
0.0
 11
309.852093
 21
163.852389
 31
0.0
  0
LINE
  5
D45
330
5663
100
AcDbEntity
  8
0
  6
Continuous
 62
     7
100
AcDbLine
 10
310.733548
 20
164.298349
 30
0.0
 11
309.852093
 21
163.852389
 31
0.0
  0
LINE
  5
D46
330
5663
100
AcDbEntity
  8
0
  6
Continuous
 62
     7
100
AcDbLine
 10
310.733548
 20
164.517025
 30
0.0
 11
310.403368
 21
164.349975
 31
0.0
  0
LINE
  5
D47
330
5663
100
AcDbEntity
  8
0
  6
Continuous
 62
     7
100
AcDbLine
 10
310.403368
 20
164.349975
 30
0.0
 11
309.852093
 21
163.852389
 31
0.0
  0
LINE
  5
D48
330
5663
100
AcDbEntity
  8
0
  6
Continuous
 62
     7
100
AcDbLine
 10
308.961475
 20
166.747858
 30
0.0
 11
308.961475
 21
165.293501
 31
0.0
  0
LINE
  5
D49
330
5663
100
AcDbEntity
  8
0
  6
Continuous
 62
     7
100
AcDbLine
 10
308.961475
 20
165.293501
 30
0.0
 11
308.410201
 21
164.795916
 31
0.0
  0
LINE
  5
D4A
330
5663
100
AcDbEntity
  8
0
  6
Continuous
 62
     7
100
AcDbLine
 10
310.403368
 20
164.349975
 30
0.0
 11
308.961475
 21
165.293501
 31
0.0
  0
LWPOLYLINE
  5
D4B
330
5663
100
AcDbEntity
  8
0
  6
Continuous
 62
     7
100
AcDbPolyline
 90
        8
 70
   128
 43
0.0
 10
318.208783
 20
106.376177
 10
318.285117
 20
104.771906
 10
318.511667
 20
103.287637
 10
318.881151
 20
101.971076
 10
319.381693
 20
100.864538
 10
319.997206
 20
100.003588
 10
320.707907
 20
99.415899
 10
320.994037
 20
99.270262
  0
ARC
  5
D4C
330
5663
100
AcDbEntity
  8
0
  6
Continuous
 62
     7
100
AcDbCircle
 10
335.00017
 20
106.711522
 30
0.0
 40
16.79473557146611
100
AcDbArc
 50
146.507674
 51
181.144117
  0
LWPOLYLINE
  5
D4D
330
5663
100
AcDbEntity
  8
0
  6
Continuous
 62
     7
100
AcDbPolyline
 90
        8
 70
   128
 43
0.0
 10
318.208783
 20
149.842839
 10
318.285117
 20
148.238568
 10
318.511667
 20
146.754299
 10
318.881151
 20
145.437738
 10
319.381693
 20
144.3312
 10
319.997206
 20
143.470251
 10
320.707907
 20
142.882561
 10
320.994037
 20
142.736924
  0
ARC
  5
D4E
330
5663
100
AcDbEntity
  8
0
  6
Continuous
 62
     7
100
AcDbCircle
 10
334.927196
 20
150.188709
 30
0.0
 40
16.72199034915717
100
AcDbArc
 50
146.065999
 51
181.185165
  0
LINE
  5
D4F
330
5663
100
AcDbEntity
  8
0
  6
Continuous
 62
     7
100
AcDbLine
 10
325.497369
 20
83.374575
 30
0.0
 11
325.497369
 21
163.643011
 31
0.0
  0
ARC
  5
D50
330
5663
100
AcDbEntity
  8
0
  6
Continuous
 62
     7
100
AcDbCircle
 10
326.490605
 20
170.579826
 30
0.0
 40
7.007561639004125
100
AcDbArc
 50
261.851588
 51
279.812127
  0
LWPOLYLINE
  5
D51
330
5663
100
AcDbEntity
  8
0
  6
Continuous
 62
     7
100
AcDbPolyline
 90
        3
 70
     0
 43
0.0
 10
328.22942
 20
163.059739
 10
327.988575
 20
163.368305
 10
327.68482
 20
163.674772
  0
LINE
  5
D52
330
5663
100
AcDbEntity
  8
0
  6
Continuous
 62
     7
100
AcDbLine
 10
328.22942
 20
163.059739
 30
0.0
 11
328.22942
 21
84.336784
 31
0.0
  0
LWPOLYLINE
  5
D53
330
5663
100
AcDbEntity
  8
0
  6
Continuous
 62
     7
100
AcDbPolyline
 90
        3
 70
     0
 43
0.0
 10
327.68482
 20
83.406336
 10
327.988575
 20
83.855958
 10
328.22942
 20
84.336784
  0
ARC
  5
D54
330
5663
100
AcDbEntity
  8
0
  6
Continuous
 62
     7
100
AcDbCircle
 10
326.490605
 20
90.31139
 30
0.0
 40
7.007561639005459
100
AcDbArc
 50
261.851588
 51
279.812127
  0
LINE
  5
D55
330
5663
100
AcDbEntity
  8
0
  6
Continuous
 62
     7
100
AcDbLine
 10
325.497369
 20
163.643011
 30
0.0
 11
320.994037
 21
164.31594
 31
0.0
  0
LINE
  5
D56
330
5663
100
AcDbEntity
  8
0
  6
Continuous
 62
     7
100
AcDbLine
 10
321.494037
 20
164.540084
 30
0.0
 11
320.994037
 21
164.31594
 31
0.0
  0
LINE
  5
D57
330
5663
100
AcDbEntity
  8
0
  6
Continuous
 62
     7
100
AcDbLine
 10
326.430382
 20
163.80245
 30
0.0
 11
321.494037
 21
164.540084
 31
0.0
  0
ARC
  5
D58
330
5663
100
AcDbEntity
  8
0
  6
Continuous
 62
     7
100
AcDbCircle
 10
326.681509
 20
165.596365
 30
0.0
 40
1.811407453257465
100
AcDbArc
 50
262.031032
 51
276.188918
  0
LINE
  5
D59
330
5663
100
AcDbEntity
  8
0
  6
Continuous
 62
     7
100
AcDbLine
 10
327.68482
 20
163.674772
 30
0.0
 11
326.876792
 21
163.795515
 31
0.0
  0
LINE
  5
D5A
330
5663
100
AcDbEntity
  8
0
  6
Continuous
 62
     7
100
AcDbLine
 10
326.097369
 20
165.071094
 30
0.0
 11
346.147369
 21
174.059264
 31
0.0
  0
ARC
  5
D5B
330
5663
100
AcDbEntity
  8
0
  6
Continuous
 62
     7
100
AcDbCircle
 10
345.737143
 20
171.992355
 30
0.0
 40
2.107224853859636
100
AcDbArc
 50
18.55603
 51
78.774218
  0
LWPOLYLINE
  5
D5C
330
5663
100
AcDbEntity
  8
0
  6
Continuous
 62
     7
100
AcDbPolyline
 90
        3
 70
     0
 43
0.0
 10
347.47942
 20
171.689278
 10
347.647194
 20
172.181023
 10
347.73482
 20
172.662941
  0
LINE
  5
D5D
330
5663
100
AcDbEntity
  8
0
  6
Continuous
 62
     7
100
AcDbLine
 10
347.47942
 20
171.689278
 30
0.0
 11
328.22942
 21
163.059739
 31
0.0
  0
ARC
  5
D5E
330
5663
100
AcDbEntity
  8
0
  6
Continuous
 62
     7
100
AcDbCircle
 10
325.687143
 20
163.004186
 30
0.0
 40
2.107224853859793
100
AcDbArc
 50
18.55603
 51
78.774218
  0
ARC
  5
D5F
330
5663
100
AcDbEntity
  8
0
  6
Continuous
 62
     7
100
AcDbCircle
 10
326.438609
 20
163.543254
 30
0.0
 40
0.505608493695366
100
AcDbArc
 50
29.928932
 51
79.542289
  0
LINE
  5
D60
330
5663
100
AcDbEntity
  8
0
  6
Continuous
 62
     7
100
AcDbLine
 10
321.594037
 20
164.778098
 30
0.0
 11
326.530382
 21
164.040464
 31
0.0
  0
LINE
  5
D61
330
5663
100
AcDbEntity
  8
0
  6
Continuous
 62
     7
100
AcDbLine
 10
321.594037
 20
165.744024
 30
0.0
 11
321.594037
 21
164.778098
 31
0.0
  0
LINE
  5
D62
330
5663
100
AcDbEntity
  8
0
  6
Continuous
 62
     7
100
AcDbLine
 10
326.097369
 20
165.071094
 30
0.0
 11
321.594037
 21
165.744024
 31
0.0
  0
LINE
  5
D63
330
5663
100
AcDbEntity
  8
0
  6
Continuous
 62
     7
100
AcDbLine
 10
325.497369
 20
83.374575
 30
0.0
 11
320.994037
 21
84.047504
 31
0.0
  0
LINE
  5
D64
330
5663
100
AcDbEntity
  8
0
  6
Continuous
 62
     7
100
AcDbLine
 10
320.994037
 20
84.047504
 30
0.0
 11
320.994037
 21
164.31594
 31
0.0
  0
LINE
  5
D65
330
5663
100
AcDbEntity
  8
0
  6
Continuous
 62
     7
100
AcDbLine
 10
346.147369
 20
174.059264
 30
0.0
 11
341.644037
 21
174.732193
 31
0.0
  0
LINE
  5
D66
330
5663
100
AcDbEntity
  8
0
  6
Continuous
 62
     7
100
AcDbLine
 10
321.594037
 20
165.744024
 30
0.0
 11
341.644037
 21
174.732193
 31
0.0
  0
LINE
  5
D67
330
5663
100
AcDbEntity
  8
0
  6
Continuous
 62
     7
100
AcDbLine
 10
347.47942
 20
92.966323
 30
0.0
 11
347.47942
 21
171.689278
 31
0.0
  0
LINE
  5
D68
330
5663
100
AcDbEntity
  8
0
  6
Continuous
 62
     7
100
AcDbLine
 10
328.22942
 20
84.336784
 30
0.0
 11
347.47942
 21
92.966323
 31
0.0
  0
ARC
  5
D69
330
5663
100
AcDbEntity
  8
0
  6
Continuous
 62
     7
100
AcDbCircle
 10
326.320311
 20
83.928238
 30
0.0
 40
1.460913283849808
100
AcDbArc
 50
261.22212
 51
339.068954
  0
LWPOLYLINE
  5
D6A
330
5663
100
AcDbEntity
  8
0
  6
Continuous
 62
     7
100
AcDbPolyline
 90
        3
 70
     0
 43
0.0
 10
347.73482
 20
92.394505
 10
347.647194
 20
92.668676
 10
347.47942
 20
92.966323
  0
ARC
  5
D6B
330
5663
100
AcDbEntity
  8
0
  6
Continuous
 62
     7
100
AcDbCircle
 10
346.335194
 20
92.944986
 30
0.0
 40
1.503988477555736
100
AcDbArc
 50
294.777076
 51
338.530001
  0
LINE
  5
D6C
330
5663
100
AcDbEntity
  8
0
  6
Continuous
 62
     7
100
AcDbLine
 10
326.097369
 20
82.484436
 30
0.0
 11
321.594037
 21
83.157366
 31
0.0
  0
LINE
  5
D6D
330
5663
100
AcDbEntity
  8
0
  6
Continuous
 62
     7
100
AcDbLine
 10
321.594037
 20
83.957847
 30
0.0
 11
321.594037
 21
83.157366
 31
0.0
  0
LWPOLYLINE
  5
D6E
330
5663
100
AcDbEntity
  8
0
  6
Continuous
 62
     7
100
AcDbPolyline
 90
        5
 70
   128
 43
0.0
 10
347.73482
 20
172.662941
 10
347.746291
 20
172.737827
 10
347.715861
 20
172.812358
 10
347.644167
 20
172.88497
 10
347.637067
 20
172.890367
  0
LINE
  5
D6F
330
5663
100
AcDbEntity
  8
0
  6
Continuous
 62
     7
100
AcDbLine
 10
347.747369
 20
92.452401
 30
0.0
 11
347.73482
 21
92.394505
 31
0.0
  0
LINE
  5
D70
330
5663
100
AcDbEntity
  8
0
  6
Continuous
 62
     7
100
AcDbLine
 10
313.958783
 20
166.290207
 30
0.0
 11
331.958783
 21
174.359386
 31
0.0
  0
LWPOLYLINE
  5
D71
330
5663
100
AcDbEntity
  8
0
  6
Continuous
 62
     7
100
AcDbPolyline
 90
        9
 70
   128
 43
0.0
 10
331.958783
 20
174.359386
 10
332.153873
 20
174.409723
 10
332.341466
 20
174.383885
 10
332.514353
 20
174.282866
 10
332.66589
 20
174.110547
 10
332.790253
 20
173.873551
 10
332.882662
 20
173.580986
 10
332.939568
 20
173.244094
 10
332.958783
 20
172.875822
  0
LINE
  5
D72
330
5663
100
AcDbEntity
  8
0
  6
Continuous
 62
     7
100
AcDbLine
 10
332.958783
 20
172.875822
 30
0.0
 11
332.958783
 21
170.8387
 31
0.0
  0
LINE
  5
D73
330
5663
100
AcDbEntity
  8
0
  6
Continuous
 62
     7
100
AcDbLine
 10
320.994037
 20
89.272181
 30
0.0
 11
313.958783
 21
86.118363
 31
0.0
  0
LWPOLYLINE
  5
D74
330
5663
100
AcDbEntity
  8
0
  6
Continuous
 62
     7
100
AcDbPolyline
 90
        9
 70
   128
 43
0.0
 10
313.958783
 20
86.118363
 10
313.763693
 20
86.068027
 10
313.576099
 20
86.093864
 10
313.403213
 20
86.194884
 10
313.251676
 20
86.367202
 10
313.127313
 20
86.604198
 10
313.034903
 20
86.896763
 10
312.977998
 20
87.233655
 10
312.958783
 20
87.601927
  0
LINE
  5
D75
330
5663
100
AcDbEntity
  8
0
  6
Continuous
 62
     7
100
AcDbLine
 10
312.958783
 20
87.601927
 30
0.0
 11
312.958783
 21
163.910067
 31
0.0
  0
ARC
  5
D76
330
5663
100
AcDbEntity
  8
0
  6
Continuous
 62
     7
100
AcDbCircle
 10
315.6944
 20
164.160857
 30
0.0
 40
2.747088864969561
100
AcDbArc
 50
129.183224
 51
185.237991
  0
LINE
  5
D77
330
5663
100
AcDbEntity
  8
0
  6
Continuous
 62
     7
100
AcDbLine
 10
312.52577
 20
163.974772
 30
0.0
 11
312.958783
 21
163.910067
 31
0.0
  0
ARC
  5
D78
330
5663
100
AcDbEntity
  8
0
  6
Continuous
 62
     7
100
AcDbCircle
 10
315.261387
 20
164.225562
 30
0.0
 40
2.747088864969531
100
AcDbArc
 50
129.183224
 51
185.237991
  0
LINE
  5
D79
330
5663
100
AcDbEntity
  8
0
  6
Continuous
 62
     7
100
AcDbLine
 10
313.52577
 20
166.354912
 30
0.0
 11
313.958783
 21
166.290207
 31
0.0
  0
LINE
  5
D7A
330
5663
100
AcDbEntity
  8
0
  6
Continuous
 62
     7
100
AcDbLine
 10
312.52577
 20
87.666632
 30
0.0
 11
312.958783
 21
87.601927
 31
0.0
  0
LINE
  5
D7B
330
5663
100
AcDbEntity
  8
0
  6
Continuous
 62
     7
100
AcDbLine
 10
312.52577
 20
87.666632
 30
0.0
 11
312.52577
 21
163.974772
 31
0.0
  0
LINE
  5
D7C
330
5663
100
AcDbEntity
  8
0
  6
Continuous
 62
     7
100
AcDbLine
 10
331.52577
 20
174.424091
 30
0.0
 11
331.958783
 21
174.359386
 31
0.0
  0
LINE
  5
D7D
330
5663
100
AcDbEntity
  8
0
  6
Continuous
 62
     7
100
AcDbLine
 10
313.52577
 20
166.354912
 30
0.0
 11
331.52577
 21
174.424091
 31
0.0
  0
LWPOLYLINE
  5
D7E
330
5663
100
AcDbEntity
  8
0
  6
Continuous
 62
     7
100
AcDbPolyline
 90
        8
 70
   128
 43
0.0
 10
313.230193
 20
86.136882
 10
313.143087
 20
86.158569
 10
312.9702
 20
86.259588
 10
312.818663
 20
86.431907
 10
312.694301
 20
86.668903
 10
312.601891
 20
86.961468
 10
312.544985
 20
87.29836
 10
312.52577
 20
87.666632
  0
LWPOLYLINE
  5
D7F
330
5663
100
AcDbEntity
  8
0
  6
Continuous
 62
     7
100
AcDbPolyline
 90
        3
 70
   128
 43
0.0
 10
331.52577
 20
174.424091
 10
331.720861
 20
174.474427
 10
331.821347
 20
174.470277
  0
LWPOLYLINE
  5
D80
330
5663
100
AcDbEntity
  8
0
  6
Continuous
 62
     7
100
AcDbPolyline
 90
        3
 70
   128
 43
0.0
 10
326.213074
 20
183.710481
 10
325.159535
 20
184.163781
 10
324.958067
 20
184.235769
  0
LWPOLYLINE
  5
D81
330
5663
100
AcDbEntity
  8
0
  6
Continuous
 62
     7
100
AcDbPolyline
 90
       32
 70
   128
 43
0.0
 10
302.485024
 20
184.235769
 10
302.387889
 20
184.201525
 10
301.312005
 20
183.751755
 10
300.500608
 20
183.266234
 10
299.970993
 20
182.75531
 10
299.734447
 20
182.229872
 10
299.796011
 20
181.70112
 10
300.154374
 20
181.180323
 10
300.801898
 20
180.67858
 10
301.724782
 20
180.206586
 10
302.903356
 20
179.774399
 10
304.312501
 20
179.391233
 10
305.922183
 20
179.065252
 10
307.698095
 20
178.803405
 10
309.602387
 20
178.611272
 10
311.594471
 20
178.492949
 10
313.63189
 20
178.450957
 10
315.67122
 20
178.486192
 10
317.668996
 20
178.597902
 10
319.582639
 20
178.783706
 10
321.371363
 20
179.039645
 10
322.997044
 20
179.360263
 10
324.425034
 20
179.738727
 10
325.624898
 20
180.166971
 10
326.571063
 20
180.635868
 10
327.243362
 20
181.135423
 10
327.627468
 20
181.65499
 10
327.715193
 20
182.183494
 10
327.504667
 20
182.709673
 10
327.000378
 20
183.22231
 10
326.213074
 20
183.710481
 10
326.213074
 20
183.710481
  0
LWPOLYLINE
  5
D82
330
5663
100
AcDbEntity
  8
0
  6
Continuous
 62
     7
100
AcDbPolyline
 90
       23
 70
   128
 43
0.0
 10
299.721545
 20
180.142498
 10
299.796011
 20
179.769268
 10
300.154374
 20
179.248471
 10
300.801898
 20
178.746728
 10
301.724782
 20
178.274734
 10
302.903356
 20
177.842548
 10
304.312501
 20
177.459381
 10
305.922183
 20
177.1334
 10
307.698095
 20
176.871553
 10
309.602387
 20
176.679421
 10
311.594471
 20
176.561097
 10
313.63189
 20
176.519106
 10
315.67122
 20
176.55434
 10
317.668996
 20
176.66605
 10
319.582639
 20
176.851854
 10
321.371363
 20
177.107793
 10
322.997044
 20
177.428411
 10
324.425034
 20
177.806876
 10
325.624898
 20
178.23512
 10
326.571063
 20
178.704016
 10
327.243362
 20
179.203571
 10
327.627468
 20
179.723138
 10
327.721545
 20
180.142498
  0
LWPOLYLINE
  5
D83
330
5663
100
AcDbEntity
  8
0
  6
Continuous
 62
     7
100
AcDbPolyline
 90
       23
 70
   128
 43
0.0
 10
327.721545
 20
10.332738
 10
327.672665
 20
10.030212
 10
327.353804
 20
9.507697
 10
326.744396
 20
9.002766
 10
325.857428
 20
8.526182
 10
324.711804
 20
8.0881
 10
323.331943
 20
7.69786
 10
321.747252
 20
7.363777
 10
319.991508
 20
7.092973
 10
318.10213
 20
6.891218
 10
316.119387
 20
6.762814
 10
314.085539
 20
6.710496
 10
312.043933
 20
6.73538
 10
310.038082
 20
6.836935
 10
308.110738
 20
7.012998
 10
306.302978
 20
7.259815
 10
304.653332
 20
7.572126
 10
303.19696
 20
7.943274
 10
301.964901
 20
8.36535
 10
300.983414
 20
8.829357
 10
300.273418
 20
9.325407
 10
299.850046
 20
9.842925
 10
299.721545
 20
10.332738
  0
LWPOLYLINE
  5
D85
330
5663
100
AcDbEntity
  8
0
  6
Continuous
 62
     7
100
AcDbPolyline
 90
       11
 70
   128
 43
0.0
 10
299.721545
 20
94.368285
 10
299.757919
 20
94.107255
 10
300.053569
 20
93.583827
 10
300.640528
 20
93.077118
 10
301.506286
 20
92.597927
 10
302.632392
 20
92.156469
 10
303.994843
 20
91.762152
 10
305.564602
 20
91.42338
 10
307.308212
 20
91.147374
 10
309.188511
 20
90.940016
 10
310.733548
 20
90.828307
  0
LWPOLYLINE
  5
D86
330
5663
100
AcDbEntity
  8
0
  6
Continuous
 62
     7
100
AcDbPolyline
 90
       11
 70
   128
 43
0.0
 10
299.727616
 20
97.932107
 10
299.757919
 20
97.777773
 10
300.053569
 20
97.254345
 10
300.640528
 20
96.747636
 10
301.506286
 20
96.268445
 10
302.632392
 20
95.826987
 10
303.994843
 20
95.43267
 10
305.564602
 20
95.093898
 10
307.308212
 20
94.817892
 10
309.188511
 20
94.610534
 10
310.733548
 20
94.498825
  0
LINE
  5
D87
330
5663
100
AcDbEntity
  8
0
  6
Continuous
 62
     7
100
AcDbLine
 10
322.905122
 20
164.582184
 30
0.0
 11
322.752993
 21
164.351959
 31
0.0
  0
LINE
  5
D88
330
5663
100
AcDbEntity
  8
0
  6
Continuous
 62
     7
100
AcDbLine
 10
312.02577
 20
166.648406
 30
0.0
 11
312.02577
 21
84.544711
 31
0.0
  0
LINE
  5
D89
330
5663
100
AcDbEntity
  8
0
  6
Continuous
 62
     7
100
AcDbLine
 10
312.02577
 20
166.648406
 30
0.0
 11
332.926794
 21
176.018079
 31
0.0
  0
LINE
  5
D8A
330
5663
100
AcDbEntity
  8
0
  6
Continuous
 62
     7
100
AcDbLine
 10
312.02577
 20
84.544711
 30
0.0
 11
320.994037
 21
88.565075
 31
0.0
  0
LINE
  5
D8B
330
5663
100
AcDbEntity
  8
0
  6
Continuous
 62
     7
100
AcDbLine
 10
311.733548
 20
84.588377
 30
0.0
 11
312.02577
 21
84.544711
 31
0.0
  0
LINE
  5
D8C
330
5663
100
AcDbEntity
  8
0
  6
Continuous
 62
     7
100
AcDbLine
 10
311.733548
 20
166.692072
 30
0.0
 11
311.733548
 21
84.588377
 31
0.0
  0
LINE
  5
D8D
330
5663
100
AcDbEntity
  8
0
  6
Continuous
 62
     7
100
AcDbLine
 10
311.733548
 20
166.692072
 30
0.0
 11
312.02577
 21
166.648406
 31
0.0
  0
LWPOLYLINE
  5
D8E
330
5663
100
AcDbEntity
  8
0
  6
Continuous
 62
     7
100
AcDbPolyline
 90
        9
 70
   128
 43
0.0
 10
310.811025
 20
167.28304
 10
310.746405
 20
167.198958
 10
310.736289
 20
167.113269
 10
310.780956
 20
167.028323
 10
310.879181
 20
166.946449
 10
311.028268
 20
166.869895
 10
311.224129
 20
166.800759
 10
311.461392
 20
166.740938
 10
311.733548
 20
166.692072
  0
LINE
  5
D8F
330
5663
100
AcDbEntity
  8
0
  6
Continuous
 62
     7
100
AcDbLine
 10
318.649451
 20
174.358076
 30
0.0
 11
310.811025
 21
167.28304
 31
0.0
  0
LWPOLYLINE
  5
D90
330
5663
100
AcDbEntity
  8
0
  6
Continuous
 62
     7
100
AcDbPolyline
 90
        9
 70
   128
 43
0.0
 10
312.817848
 20
176.500653
 10
314.243583
 20
176.435121
 10
315.577886
 20
176.289522
 10
316.754534
 20
176.07108
 10
317.715134
 20
175.790637
 10
318.41201
 20
175.462111
 10
318.810577
 20
175.101806
 10
318.891056
 20
174.727604
 10
318.649451
 20
174.358076
  0
ARC
  5
D91
330
5663
100
AcDbEntity
  8
0
  6
Continuous
 62
     7
100
AcDbCircle
 10
326.763884
 20
180.132453
 30
0.0
 40
1.055541018312117
100
AcDbArc
 50
317.405037
 51
24.86915
  0
LWPOLYLINE
  5
D92
330
5663
100
AcDbEntity
  8
0
  6
Continuous
 62
     7
100
AcDbPolyline
 90
       13
 70
   128
 43
0.0
 10
299.721545
 20
180.576358
 10
299.705794
 20
180.540836
 10
299.63148
 20
180.005531
 10
299.860727
 20
179.473176
 10
300.388596
 20
178.955242
 10
301.203714
 20
178.462886
 10
302.288521
 20
178.006716
 10
303.619645
 20
177.59656
 10
305.168408
 20
177.241255
 10
306.901442
 20
176.948455
 10
308.78141
 20
176.724469
 10
310.767811
 20
176.574121
 10
312.817848
 20
176.500653
  0
LWPOLYLINE
  5
D93
330
5663
100
AcDbEntity
  8
0
  6
Continuous
 62
     7
100
AcDbPolyline
 90
        9
 70
   128
 43
0.0
 10
332.248681
 20
176.288832
 10
330.938937
 20
176.57419
 10
329.799419
 20
176.904884
 10
328.853323
 20
177.274183
 10
328.119905
 20
177.674569
 10
327.614093
 20
178.097892
 10
327.346183
 20
178.535538
 10
327.321628
 20
178.978597
 10
327.540927
 20
179.418051
  0
LINE
  5
D94
330
5663
100
AcDbEntity
  8
0
  6
Continuous
 62
     7
100
AcDbLine
 10
332.787674
 20
176.187478
 30
0.0
 11
332.248681
 21
176.288832
 31
0.0
  0
LWPOLYLINE
  5
D95
330
5663
100
AcDbEntity
  8
0
  6
Continuous
 62
     7
100
AcDbPolyline
 90
        9
 70
   128
 43
0.0
 10
332.926794
 20
176.018079
 10
332.965102
 20
176.039586
 10
332.987626
 20
176.062539
 10
332.99361
 20
176.086171
 10
332.982855
 20
176.109689
 10
332.955721
 20
176.132306
 10
332.913117
 20
176.153265
 10
332.856469
 20
176.171863
 10
332.787674
 20
176.187478
  0
LWPOLYLINE
  5
D96
330
5663
100
AcDbEntity
  8
0
  6
Continuous
 62
     7
100
AcDbPolyline
 90
        8
 70
   128
 43
0.0
 10
310.733548
 20
85.036665
 10
310.736289
 20
85.009574
 10
310.780956
 20
84.924627
 10
310.879181
 20
84.842754
 10
311.028268
 20
84.7662
 10
311.224129
 20
84.697064
 10
311.461392
 20
84.637243
 10
311.733548
 20
84.588377
  0
LWPOLYLINE
  5
D97
330
5663
100
AcDbEntity
  8
0
  6
Continuous
 62
     7
100
AcDbPolyline
 90
      137
 70
     0
 43
0.0
 10
310.733548
 20
163.922092
 10
310.672379
 20
163.863628
 10
310.61094
 20
163.80558
 10
310.548962
 20
163.748363
 10
310.486173
 20
163.692392
 10
310.422306
 20
163.638083
 10
310.357089
 20
163.585852
 10
310.290254
 20
163.536114
 10
310.221529
 20
163.489285
 10
310.150654
 20
163.445772
 10
310.077577
 20
163.405775
 10
310.002495
 20
163.369251
 10
309.925617
 20
163.336144
 10
309.847151
 20
163.306398
 10
309.767306
 20
163.279958
 10
309.686292
 20
163.256767
 10
309.604317
 20
163.23677
 10
309.52159
 20
163.219911
 10
309.43832
 20
163.206134
 10
309.354698
 20
163.195395
 10
309.270835
 20
163.187703
 10
309.186817
 20
163.183082
 10
309.102729
 20
163.181558
 10
309.018656
 20
163.183156
 10
308.934684
 20
163.187901
 10
308.8509
 20
163.195817
 10
308.767387
 20
163.20693
 10
308.684233
 20
163.221264
 10
308.601524
 20
163.238844
 10
308.519354
 20
163.259651
 10
308.437827
 20
163.283631
 10
308.357049
 20
163.310729
 10
308.277123
 20
163.340889
 10
308.198153
 20
163.374056
 10
308.120245
 20
163.410174
 10
308.043501
 20
163.449187
 10
307.968027
 20
163.491041
 10
307.893927
 20
163.53568
 10
307.821294
 20
163.58304
 10
307.7502
 20
163.633048
 10
307.680715
 20
163.685624
 10
307.612906
 20
163.740692
 10
307.546844
 20
163.798175
 10
307.482598
 20
163.857994
 10
307.420236
 20
163.920072
 10
307.359829
 20
163.984332
 10
307.301443
 20
164.050697
 10
307.245148
 20
164.119086
 10
307.190997
 20
164.189403
 10
307.139038
 20
164.261549
 10
307.089323
 20
164.335422
 10
307.041899
 20
164.410921
 10
306.996818
 20
164.487945
 10
306.954127
 20
164.566393
 10
306.913877
 20
164.646165
 10
306.876117
 20
164.72716
 10
306.840896
 20
164.809276
 10
306.808253
 20
164.892406
 10
306.778216
 20
164.976436
 10
306.750808
 20
165.06125
 10
306.726057
 20
165.146731
 10
306.703987
 20
165.232765
 10
306.684624
 20
165.319236
 10
306.667993
 20
165.406027
 10
306.65412
 20
165.493025
 10
306.64303
 20
165.580112
 10
306.634746
 20
165.667173
 10
306.629269
 20
165.754096
 10
306.626594
 20
165.840766
 10
306.626716
 20
165.927071
 10
306.629632
 20
166.012896
 10
306.635337
 20
166.09813
 10
306.643825
 20
166.182659
 10
306.655092
 20
166.266369
 10
306.669135
 20
166.349147
 10
306.685946
 20
166.430882
 10
306.705507
 20
166.511471
 10
306.727787
 20
166.590826
 10
306.752752
 20
166.668857
 10
306.780372
 20
166.745473
 10
306.810613
 20
166.820587
 10
306.843444
 20
166.894107
 10
306.878833
 20
166.965944
 10
306.916747
 20
167.03601
 10
306.957154
 20
167.104213
 10
307.000015
 20
167.170474
 10
307.045277
 20
167.234725
 10
307.092885
 20
167.296903
 10
307.142784
 20
167.356944
 10
307.194919
 20
167.414783
 10
307.249236
 20
167.470357
 10
307.30568
 20
167.523601
 10
307.364197
 20
167.574451
 10
307.42473
 20
167.622844
 10
307.487224
 20
167.668717
 10
307.55161
 20
167.712028
 10
307.617812
 20
167.752741
 10
307.685758
 20
167.790819
 10
307.755372
 20
167.826227
 10
307.826581
 20
167.858929
 10
307.899311
 20
167.888888
 10
307.973487
 20
167.916069
 10
308.049036
 20
167.940435
 10
308.125883
 20
167.96195
 10
308.203937
 20
167.980585
 10
308.283082
 20
167.996318
 10
308.3632
 20
168.009128
 10
308.444175
 20
168.018995
 10
308.525889
 20
168.025898
 10
308.608223
 20
168.029817
 10
308.691061
 20
168.030731
 10
308.774285
 20
168.028619
 10
308.857778
 20
168.023461
 10
308.941427
 20
168.015247
 10
309.025162
 20
168.004029
 10
309.108921
 20
167.989879
 10
309.192645
 20
167.972867
 10
309.276273
 20
167.953066
 10
309.359746
 20
167.930548
 10
309.443003
 20
167.905384
 10
309.525985
 20
167.877647
 10
309.60863
 20
167.847409
 10
309.690872
 20
167.814734
 10
309.772517
 20
167.779592
 10
309.853264
 20
167.741869
 10
309.93281
 20
167.701448
 10
310.010851
 20
167.658212
 10
310.087084
 20
167.612047
 10
310.161205
 20
167.562834
 10
310.232912
 20
167.510459
 10
310.3019
 20
167.454804
 10
310.367868
 20
167.395755
 10
310.430808
 20
167.333446
 10
310.491275
 20
167.268485
 10
310.549886
 20
167.201534
 10
310.607261
 20
167.133258
 10
310.664017
 20
167.064319
  0
LWPOLYLINE
  5
D98
330
5663
100
AcDbEntity
  8
0
  6
Continuous
 62
     7
100
AcDbPolyline
 90
       11
 70
   128
 43
0.0
 10
299.621545
 20
98.038803
 10
299.63148
 20
97.901836
 10
299.860727
 20
97.369481
 10
300.388596
 20
96.851546
 10
301.203714
 20
96.359191
 10
302.288521
 20
95.903021
 10
303.619645
 20
95.492865
 10
305.168408
 20
95.13756
 10
306.901442
 20
94.84476
 10
308.78141
 20
94.620773
 10
310.733548
 20
94.472338
  0
ARC
  5
D99
330
5663
100
AcDbEntity
  8
0
  6
Continuous
 62
     8
100
AcDbCircle
 10
346.142664
 20
84.728482
 30
0.0
 40
5.039262965747652
100
AcDbArc
 50
130.2546
 51
181.894394
  0
LWPOLYLINE
  5
D9A
330
5663
100
AcDbEntity
  8
0
  6
Continuous
 62
     8
100
AcDbPolyline
 90
        7
 70
   128
 43
0.0
 10
341.106155
 20
84.561897
 10
341.074286
 20
84.567808
 10
341.047484
 20
84.575214
 10
341.02678
 20
84.583831
 10
341.01297
 20
84.593328
 10
341.006583
 20
84.60334
 10
341.006155
 20
84.606726
  0
ARC
  5
D9B
330
5663
100
AcDbEntity
  8
0
  6
Continuous
 62
     8
100
AcDbCircle
 10
346.441401
 20
19.99041
 30
0.0
 40
4.719271381231597
100
AcDbArc
 50
292.332937
 51
3.464154
  0
LWPOLYLINE
  5
D9C
330
5663
100
AcDbEntity
  8
0
  6
Continuous
 62
     8
100
AcDbPolyline
 90
        7
 70
   128
 43
0.0
 10
341.106155
 20
21.776718
 10
341.074286
 20
21.782629
 10
341.047484
 20
21.790035
 10
341.02678
 20
21.798652
 10
341.01297
 20
21.808149
 10
341.006583
 20
21.818161
 10
341.006155
 20
21.821547
  0
LINE
  5
D9D
330
5663
100
AcDbEntity
  8
0
  6
Continuous
 62
     8
100
AcDbLine
 10
322.285757
 20
83.054003
 30
0.0
 11
322.285757
 21
9.365536
 31
0.0
  0
LINE
  5
D9E
330
5663
100
AcDbEntity
  8
0
  6
Continuous
 62
     8
100
AcDbLine
 10
333.696562
 20
85.631145
 30
0.0
 11
333.696562
 21
11.623618
 31
0.0
  0
LINE
  5
D9F
330
5663
100
AcDbEntity
  8
0
  6
Continuous
 62
     8
100
AcDbLine
 10
344.770471
 20
90.595443
 30
0.0
 11
344.770471
 21
90.207151
 31
0.0
  0
LINE
  5
DA0
330
5663
100
AcDbEntity
  8
0
  6
Continuous
 62
     8
100
AcDbLine
 10
340.594564
 20
84.784561
 30
0.0
 11
341.042668
 21
84.985441
 31
0.0
  0
LINE
  5
DA1
330
5663
100
AcDbEntity
  8
0
  6
Continuous
 62
     8
100
AcDbLine
 10
340.594564
 20
21.613012
 30
0.0
 11
341.033061
 21
21.809585
 31
0.0
  0
LINE
  5
DA2
330
5663
100
AcDbEntity
  8
0
  6
Continuous
 62
     8
100
AcDbLine
 10
326.217095
 20
163.834321
 30
0.0
 11
326.369224
 21
164.064546
 31
0.0
  0
LINE
  5
DA3
330
5663
100
AcDbEntity
  8
0
  6
Continuous
 62
     8
100
AcDbLine
 10
332.926794
 20
176.018079
 30
0.0
 11
332.926794
 21
173.346196
 31
0.0
  0
LINE
  5
DA4
330
5663
100
AcDbEntity
  8
0
  6
Continuous
 62
     8
100
AcDbLine
 10
312.817848
 20
176.500653
 30
0.0
 11
312.817848
 21
169.094417
 31
0.0
  0
LINE
  5
DA5
330
5663
100
AcDbEntity
  8
0
  6
Continuous
 62
     8
100
AcDbLine
 10
327.540927
 20
179.418051
 30
0.0
 11
327.540927
 21
178.184949
 31
0.0
  0
LINE
  5
DA6
330
5663
100
AcDbEntity
  8
0
100
AcDbLine
 10
453.446048
 20
534.520748
 30
0.0
 11
453.446048
 21
-56.586697
 31
0.0
  0
LINE
  5
F39
330
5663
100
AcDbEntity
  8
0
  6
Continuous
 62
     7
100
AcDbLine
 10
562.717383
 20
89.510497
 30
0.0
 11
563.117383
 21
89.331182
 31
0.0
  0
LINE
  5
F3A
330
5663
100
AcDbEntity
  8
0
  6
Continuous
 62
     7
100
AcDbLine
 10
565.885941
 20
84.606726
 30
0.0
 11
565.885941
 21
21.821547
 31
0.0
  0
LINE
  5
F3B
330
5663
100
AcDbEntity
  8
0
  6
Continuous
 62
     7
100
AcDbLine
 10
558.208604
 20
15.59594
 30
0.0
 11
557.808604
 21
15.775255
 31
0.0
  0
LINE
  5
F3C
330
5663
100
AcDbEntity
  8
0
  6
Continuous
 62
     7
100
AcDbLine
 10
607.27055
 20
94.368285
 30
0.0
 11
607.27055
 21
12.264589
 31
0.0
  0
LINE
  5
F3D
330
5663
100
AcDbEntity
  8
0
  6
Continuous
 62
     7
100
AcDbLine
 10
579.976597
 20
82.591277
 30
0.0
 11
559.926597
 21
91.579446
 31
0.0
  0
LINE
  5
F3E
330
5663
100
AcDbEntity
  8
0
  6
Continuous
 62
     7
100
AcDbLine
 10
559.144726
 20
92.452401
 30
0.0
 11
559.144726
 21
172.720837
 31
0.0
  0
LINE
  5
F3F
330
5663
100
AcDbEntity
  8
0
  6
Continuous
 62
     7
100
AcDbLine
 10
593.661902
 20
86.136882
 30
0.0
 11
593.228889
 21
86.072177
 31
0.0
  0
LINE
  5
F40
330
5663
100
AcDbEntity
  8
0
  6
Continuous
 62
     7
100
AcDbLine
 10
574.637736
 20
174.405572
 30
0.0
 11
575.070749
 21
174.470277
 31
0.0
  0
ARC
  5
F41
330
5663
100
AcDbEntity
  8
0
  6
Continuous
 62
     7
100
AcDbCircle
 10
593.17055
 20
151.969661
 30
0.0
 40
34.16666666666678
100
AcDbArc
 50
70.799566
 51
109.200434
  0
LINE
  5
F42
330
5663
100
AcDbEntity
  8
0
  6
Continuous
 62
     7
100
AcDbLine
 10
607.17055
 20
182.07435
 30
0.0
 11
607.17055
 21
180.142498
 31
0.0
  0
LINE
  5
F43
330
5663
100
AcDbEntity
  8
0
  6
Continuous
 62
     7
100
AcDbLine
 10
579.17055
 20
180.142498
 30
0.0
 11
579.17055
 21
182.07435
 31
0.0
  0
LINE
  5
F44
330
5663
100
AcDbEntity
  8
0
  6
Continuous
 62
     7
100
AcDbLine
 10
579.17055
 20
10.332738
 30
0.0
 11
579.17055
 21
10.441223
 31
0.0
  0
LINE
  5
F45
330
5663
100
AcDbEntity
  8
0
  6
Continuous
 62
     7
100
AcDbLine
 10
607.17055
 20
11.83073
 30
0.0
 11
607.17055
 21
10.332738
 31
0.0
  0
ARC
  5
F46
330
5663
100
AcDbEntity
  8
0
  6
Continuous
 62
     7
100
AcDbCircle
 10
593.17055
 20
40.437426
 30
0.0
 40
34.16666666666676
100
AcDbArc
 50
250.799566
 51
289.200434
  0
LINE
  5
F47
330
5663
100
AcDbEntity
  8
0
  6
Continuous
 62
     7
100
AcDbLine
 10
607.17055
 20
97.604943
 30
0.0
 11
607.17055
 21
94.368285
 31
0.0
  0
LINE
  5
F48
330
5663
100
AcDbEntity
  8
0
  6
Continuous
 62
     7
100
AcDbLine
 10
596.158547
 20
167.14036
 30
0.0
 11
596.158547
 21
85.036665
 31
0.0
  0
LINE
  5
F49
330
5663
100
AcDbEntity
  8
0
  6
Continuous
 62
     7
100
AcDbLine
 10
607.27055
 20
180.142498
 30
0.0
 11
607.27055
 21
98.038803
 31
0.0
  0
LINE
  5
F4A
330
5663
100
AcDbEntity
  8
0
  6
Continuous
 62
     7
100
AcDbLine
 10
579.07055
 20
177.897603
 30
0.0
 11
579.07055
 21
180.142498
 31
0.0
  0
LINE
  5
F4B
330
5663
100
AcDbEntity
  8
0
  6
Continuous
 62
     7
100
AcDbLine
 10
573.898314
 20
170.85439
 30
0.0
 11
573.898314
 21
176.082783
 31
0.0
  0
LWPOLYLINE
  5
F4C
330
5663
100
AcDbEntity
  8
0
  6
Continuous
 62
     7
100
AcDbPolyline
 90
       15
 70
   128
 43
0.0
 10
565.859146
 20
84.632608
 10
565.728867
 20
85.902772
 10
565.344565
 20
87.070311
 10
564.725509
 20
88.076678
 10
563.902741
 20
88.871411
 10
562.917519
 20
89.414657
 10
561.819246
 20
89.679177
 10
560.662993
 20
89.651705
 10
559.50674
 20
89.333621
 10
558.408467
 20
88.740873
 10
557.423245
 20
87.903185
 10
556.600478
 20
86.862561
 10
555.981422
 20
85.671184
 10
555.597119
 20
84.388793
 10
555.466841
 20
83.079693
  0
ARC
  5
F4D
330
5663
100
AcDbEntity
  8
0
  6
Continuous
 62
     7
100
AcDbCircle
 10
555.642822
 20
83.638045
 30
0.0
 40
0.5854279671158104
100
AcDbArc
 50
252.506176
 51
279.559563
  0
LWPOLYLINE
  5
F4E
330
5663
100
AcDbEntity
  8
0
  6
Continuous
 62
     7
100
AcDbPolyline
 90
       12
 70
   128
 43
0.0
 10
555.740046
 20
83.060746
 10
555.865982
 20
84.326209
 10
556.237474
 20
85.565854
 10
556.835895
 20
86.717519
 10
557.631237
 20
87.723455
 10
558.583618
 20
88.53322
 10
559.645282
 20
89.10621
 10
560.762993
 20
89.413691
 10
561.880704
 20
89.440247
 10
562.942368
 20
89.184545
 10
563.89475
 20
88.659407
 10
564.005729
 20
88.574349
  0
ARC
  5
F4F
330
5663
100
AcDbEntity
  8
0
  6
Continuous
 62
     7
100
AcDbCircle
 10
565.85209
 20
84.598492
 30
0.0
 40
0.0348378808993953
100
AcDbArc
 50
13.671249
 51
78.314696
  0
LINE
  5
F50
330
5663
100
AcDbEntity
  8
0
  6
Continuous
 62
     7
100
AcDbLine
 10
555.740046
 20
20.275568
 30
0.0
 11
555.740046
 21
83.060746
 31
0.0
  0
LWPOLYLINE
  5
F51
330
5663
100
AcDbEntity
  8
0
  6
Continuous
 62
     7
100
AcDbPolyline
 90
       10
 70
   128
 43
0.0
 10
565.785941
 20
21.776718
 10
565.660005
 20
20.511255
 10
565.288512
 20
19.271611
 10
564.690092
 20
18.119946
 10
563.89475
 20
17.11401
 10
562.942368
 20
16.304245
 10
561.880704
 20
15.731255
 10
560.762993
 20
15.423773
 10
559.645282
 20
15.397218
 10
558.657428
 20
15.625125
  0
LINE
  5
F52
330
5663
100
AcDbEntity
  8
0
  6
Continuous
 62
     7
100
AcDbLine
 10
565.785941
 20
84.561897
 30
0.0
 11
565.785941
 21
21.776718
 31
0.0
  0
LWPOLYLINE
  5
F53
330
5663
100
AcDbEntity
  8
0
  6
Continuous
 62
     7
100
AcDbPolyline
 90
       11
 70
   128
 43
0.0
 10
562.717383
 20
89.510497
 10
562.517519
 20
89.593972
 10
561.419246
 20
89.858492
 10
560.262993
 20
89.83102
 10
559.10674
 20
89.512936
 10
558.008467
 20
88.920188
 10
557.023245
 20
88.0825
 10
556.200478
 20
87.041876
 10
555.581422
 20
85.850499
 10
555.197119
 20
84.568108
 10
555.066841
 20
83.259008
  0
LINE
  5
F54
330
5663
100
AcDbEntity
  8
0
  6
Continuous
 62
     7
100
AcDbLine
 10
555.066841
 20
83.259008
 30
0.0
 11
555.466841
 21
83.079693
 31
0.0
  0
LINE
  5
F55
330
5663
100
AcDbEntity
  8
0
  6
Continuous
 62
     7
100
AcDbLine
 10
555.466841
 20
83.079693
 30
0.0
 11
555.466841
 21
20.294515
 31
0.0
  0
ARC
  5
F56
330
5663
100
AcDbEntity
  8
0
  6
Continuous
 62
     7
100
AcDbCircle
 10
555.642822
 20
20.852866
 30
0.0
 40
0.5854279671155621
100
AcDbArc
 50
252.506176
 51
279.559563
  0
LINE
  5
F57
330
5663
100
AcDbEntity
  8
0
  6
Continuous
 62
     7
100
AcDbLine
 10
555.066841
 20
20.47383
 30
0.0
 11
555.466841
 21
20.294515
 31
0.0
  0
LINE
  5
F58
330
5663
100
AcDbEntity
  8
0
  6
Continuous
 62
     7
100
AcDbLine
 10
555.066841
 20
83.259008
 30
0.0
 11
555.066841
 21
20.47383
 31
0.0
  0
LWPOLYLINE
  5
F59
330
5663
100
AcDbEntity
  8
0
  6
Continuous
 62
     7
100
AcDbPolyline
 90
       15
 70
   128
 43
0.0
 10
555.466841
 20
20.294515
 10
555.597119
 20
19.02435
 10
555.981422
 20
17.856811
 10
556.600478
 20
16.850444
 10
557.423245
 20
16.055711
 10
558.408467
 20
15.512465
 10
559.50674
 20
15.247945
 10
560.662993
 20
15.275417
 10
561.819246
 20
15.593501
 10
562.917519
 20
16.186249
 10
563.902741
 20
17.023937
 10
564.725509
 20
18.064561
 10
565.344565
 20
19.255938
 10
565.728867
 20
20.538329
 10
565.859146
 20
21.847429
  0
ARC
  5
F5A
330
5663
100
AcDbEntity
  8
0
  6
Continuous
 62
     7
100
AcDbCircle
 10
560.010782
 20
20.209533
 30
0.0
 40
4.951000907735439
100
AcDbArc
 50
176.939954
 51
243.5898
  0
LWPOLYLINE
  5
F5B
330
5663
100
AcDbEntity
  8
0
  6
Continuous
 62
     7
100
AcDbPolyline
 90
       13
 70
   128
 43
0.0
 10
596.158547
 20
90.801819
 10
596.239572
 20
90.806431
 10
598.20067
 20
90.959058
 10
600.055663
 20
91.183598
 10
601.765423
 20
91.475316
 10
603.293885
 20
91.828057
 10
604.608808
 20
92.234381
 10
605.682454
 20
92.685717
 10
606.492177
 20
93.172544
 10
607.020896
 20
93.684595
 10
607.25746
 20
94.211067
 10
607.196877
 20
94.740855
 10
607.17055
 20
94.802144
  0
LINE
  5
F5C
330
5663
100
AcDbEntity
  8
0
  6
Continuous
 62
     7
100
AcDbLine
 10
559.144726
 20
94.364426
 30
0.0
 11
551.674982
 21
93.248228
 31
0.0
  0
LINE
  5
F5D
330
5663
100
AcDbEntity
  8
0
  6
Continuous
 62
     7
100
AcDbLine
 10
551.674982
 20
93.248228
 30
0.0
 11
552.174982
 21
93.024084
 31
0.0
  0
ARC
  5
F5E
330
5663
100
AcDbEntity
  8
0
  6
Continuous
 62
     7
100
AcDbCircle
 10
553.934796
 20
98.607599
 30
0.0
 40
5.854279671156551
100
AcDbArc
 50
252.506176
 51
279.559563
  0
LINE
  5
F5F
330
5663
100
AcDbEntity
  8
0
  6
Continuous
 62
     7
100
AcDbLine
 10
559.144726
 20
93.46785
 30
0.0
 11
554.907033
 21
92.834615
 31
0.0
  0
LWPOLYLINE
  5
F60
330
5663
100
AcDbEntity
  8
0
  6
Continuous
 62
     7
100
AcDbPolyline
 90
       17
 70
   128
 43
0.0
 10
607.27055
 20
12.264589
 10
607.25746
 20
12.107372
 10
607.020896
 20
11.5809
 10
606.492177
 20
11.068849
 10
605.682454
 20
10.582021
 10
604.608808
 20
10.130685
 10
603.293885
 20
9.724361
 10
601.765423
 20
9.37162
 10
600.055663
 20
9.079903
 10
598.20067
 20
8.855363
 10
596.239572
 20
8.702736
 10
594.213738
 20
8.625242
 10
592.165898
 20
8.624516
 10
590.13925
 20
8.700573
 10
588.176544
 20
8.851808
 10
586.319181
 20
9.075032
 10
584.606338
 20
9.365536
  0
LINE
  5
F61
330
5663
100
AcDbEntity
  8
0
  6
Continuous
 62
     7
100
AcDbLine
 10
584.606338
 20
9.365536
 30
0.0
 11
573.195533
 21
11.623618
 31
0.0
  0
LWPOLYLINE
  5
F62
330
5663
100
AcDbEntity
  8
0
  6
Continuous
 62
     7
100
AcDbPolyline
 90
      129
 70
     0
 43
0.0
 10
562.121624
 20
15.514526
 10
562.172217
 20
15.54236
 10
562.222801
 20
15.570262
 10
562.273371
 20
15.5983
 10
562.323917
 20
15.626543
 10
562.374432
 20
15.655058
 10
562.424908
 20
15.683914
 10
562.475338
 20
15.713179
 10
562.525714
 20
15.742921
 10
562.576028
 20
15.773195
 10
562.626273
 20
15.803997
 10
562.67644
 20
15.835306
 10
562.726522
 20
15.867098
 10
562.776512
 20
15.899353
 10
562.826401
 20
15.932048
 10
562.876183
 20
15.965162
 10
562.925849
 20
15.998673
 10
562.975392
 20
16.03256
 10
563.024804
 20
16.066821
 10
563.074079
 20
16.101455
 10
563.123209
 20
16.136466
 10
563.172188
 20
16.171854
 10
563.221008
 20
16.207621
 10
563.269662
 20
16.24377
 10
563.318144
 20
16.280301
 10
563.366445
 20
16.317216
 10
563.41456
 20
16.354514
 10
563.462482
 20
16.392191
 10
563.510204
 20
16.430242
 10
563.557719
 20
16.468663
 10
563.605022
 20
16.507449
 10
563.652105
 20
16.546596
 10
563.698962
 20
16.5861
 10
563.745586
 20
16.625956
 10
563.791971
 20
16.666161
 10
563.838111
 20
16.706711
 10
563.884
 20
16.747605
 10
563.929632
 20
16.788839
 10
563.975
 20
16.830412
 10
564.0201
 20
16.87232
 10
564.064924
 20
16.914563
 10
564.109467
 20
16.957136
 10
564.153723
 20
17.000038
 10
564.197687
 20
17.043265
 10
564.241351
 20
17.086816
 10
564.284712
 20
17.130687
 10
564.327762
 20
17.174876
 10
564.370496
 20
17.219379
 10
564.41291
 20
17.264195
 10
564.454996
 20
17.30932
 10
564.496749
 20
17.354752
 10
564.538163
 20
17.400488
 10
564.579234
 20
17.446526
 10
564.619956
 20
17.492864
 10
564.660322
 20
17.539498
 10
564.700329
 20
17.586426
 10
564.739969
 20
17.633647
 10
564.779238
 20
17.681157
 10
564.81813
 20
17.728955
 10
564.856641
 20
17.777037
 10
564.894763
 20
17.825401
 10
564.932493
 20
17.874046
 10
564.969825
 20
17.922968
 10
565.006753
 20
17.972166
 10
565.043273
 20
18.021636
 10
565.079378
 20
18.071377
 10
565.115064
 20
18.121385
 10
565.150326
 20
18.17166
 10
565.185157
 20
18.222197
 10
565.219552
 20
18.272996
 10
565.253506
 20
18.324052
 10
565.287013
 20
18.375363
 10
565.320068
 20
18.426927
 10
565.352665
 20
18.478742
 10
565.384798
 20
18.530805
 10
565.416463
 20
18.583112
 10
565.447654
 20
18.635662
 10
565.478367
 20
18.688452
 10
565.508596
 20
18.741479
 10
565.538338
 20
18.79474
 10
565.567588
 20
18.848232
 10
565.596341
 20
18.901953
 10
565.624592
 20
18.9559
 10
565.652337
 20
19.01007
 10
565.679571
 20
19.064461
 10
565.706286
 20
19.119067
 10
565.732474
 20
19.173887
 10
565.75813
 20
19.228916
 10
565.783244
 20
19.284151
 10
565.807811
 20
19.339587
 10
565.831822
 20
19.395221
 10
565.85527
 20
19.45105
 10
565.878147
 20
19.50707
 10
565.900451
 20
19.563277
 10
565.922184
 20
19.619668
 10
565.94335
 20
19.67624
 10
565.963953
 20
19.732988
 10
565.983996
 20
19.78991
 10
566.003482
 20
19.847003
 10
566.022417
 20
19.904262
 10
566.040802
 20
19.961684
 10
566.058643
 20
20.019267
 10
566.075932
 20
20.077005
 10
566.092649
 20
20.134892
 10
566.108772
 20
20.192923
 10
566.12428
 20
20.251091
 10
566.139152
 20
20.30939
 10
566.153366
 20
20.367814
 10
566.1669
 20
20.426356
 10
566.179733
 20
20.485011
 10
566.191843
 20
20.543773
 10
566.203209
 20
20.602635
 10
566.213808
 20
20.661591
 10
566.223621
 20
20.720636
 10
566.232624
 20
20.779762
 10
566.240804
 20
20.838964
 10
566.248196
 20
20.898236
 10
566.254861
 20
20.957573
 10
566.26086
 20
21.016969
 10
566.266254
 20
21.07642
 10
566.271102
 20
21.135919
 10
566.275466
 20
21.195461
 10
566.279405
 20
21.255041
 10
566.282982
 20
21.314653
 10
566.286255
 20
21.374293
 10
566.289286
 20
21.433954
 10
566.292136
 20
21.493631
 10
566.294864
 20
21.553319
 10
566.297532
 20
21.613012
  0
LINE
  5
F63
330
5663
100
AcDbEntity
  8
0
  6
Continuous
 62
     7
100
AcDbLine
 10
562.121624
 20
15.514526
 30
0.0
 11
562.121624
 21
11.808991
 31
0.0
  0
LWPOLYLINE
  5
F64
330
5663
100
AcDbEntity
  8
0
  6
Continuous
 62
     7
100
AcDbPolyline
 90
      129
 70
     0
 43
0.0
 10
566.297532
 20
84.784561
 10
566.295959
 20
84.844131
 10
566.294282
 20
84.903691
 10
566.292397
 20
84.963232
 10
566.290201
 20
85.022746
 10
566.287589
 20
85.082222
 10
566.284457
 20
85.141652
 10
566.280702
 20
85.201026
 10
566.27622
 20
85.260335
 10
566.270924
 20
85.319569
 10
566.264817
 20
85.378723
 10
566.257929
 20
85.437789
 10
566.25029
 20
85.496761
 10
566.24193
 20
85.555633
 10
566.232878
 20
85.614399
 10
566.223165
 20
85.673052
 10
566.21282
 20
85.731586
 10
566.20187
 20
85.789995
 10
566.190323
 20
85.848272
 10
566.178173
 20
85.906409
 10
566.165418
 20
85.9644
 10
566.152055
 20
86.022237
 10
566.138079
 20
86.079914
 10
566.123488
 20
86.137423
 10
566.108278
 20
86.194757
 10
566.092446
 20
86.251909
 10
566.075992
 20
86.308873
 10
566.058922
 20
86.365645
 10
566.041242
 20
86.422218
 10
566.022956
 20
86.478589
 10
566.004071
 20
86.534752
 10
565.984591
 20
86.590703
 10
565.964522
 20
86.646436
 10
565.94387
 20
86.701946
 10
565.922641
 20
86.757229
 10
565.900838
 20
86.812278
 10
565.878469
 20
86.867087
 10
565.855538
 20
86.921649
 10
565.83205
 20
86.975959
 10
565.808012
 20
87.03001
 10
565.783428
 20
87.083795
 10
565.758304
 20
87.137309
 10
565.732644
 20
87.190544
 10
565.706456
 20
87.243496
 10
565.679743
 20
87.296157
 10
565.652512
 20
87.348521
 10
565.624767
 20
87.400582
 10
565.596514
 20
87.452334
 10
565.567759
 20
87.50377
 10
565.538506
 20
87.554884
 10
565.508762
 20
87.60567
 10
565.47853
 20
87.656124
 10
565.447817
 20
87.706242
 10
565.416627
 20
87.756022
 10
565.384964
 20
87.80546
 10
565.352835
 20
87.854553
 10
565.320244
 20
87.903298
 10
565.287195
 20
87.951691
 10
565.253694
 20
87.999728
 10
565.219746
 20
88.047407
 10
565.185356
 20
88.094721
 10
565.15053
 20
88.141666
 10
565.115274
 20
88.188237
 10
565.079592
 20
88.23443
 10
565.04349
 20
88.280238
 10
565.006973
 20
88.325658
 10
564.970048
 20
88.370684
 10
564.932719
 20
88.415312
 10
564.894992
 20
88.459537
 10
564.856872
 20
88.503356
 10
564.818364
 20
88.546762
 10
564.779474
 20
88.589754
 10
564.740208
 20
88.632324
 10
564.70057
 20
88.674471
 10
564.660566
 20
88.716188
 10
564.620202
 20
88.757473
 10
564.579483
 20
88.798319
 10
564.538414
 20
88.838723
 10
564.497001
 20
88.87868
 10
564.45525
 20
88.918185
 10
564.413167
 20
88.957233
 10
564.370756
 20
88.995821
 10
564.328024
 20
89.033943
 10
564.284976
 20
89.071594
 10
564.241618
 20
89.10877
 10
564.197955
 20
89.145467
 10
564.153994
 20
89.181681
 10
564.109739
 20
89.217407
 10
564.065198
 20
89.252642
 10
564.020374
 20
89.28738
 10
563.975275
 20
89.321619
 10
563.929905
 20
89.355354
 10
563.884272
 20
89.388581
 10
563.83838
 20
89.421295
 10
563.792236
 20
89.453489
 10
563.745848
 20
89.485158
 10
563.699222
 20
89.516296
 10
563.652365
 20
89.546896
 10
563.605284
 20
89.576952
 10
563.557986
 20
89.606457
 10
563.510478
 20
89.635407
 10
563.462766
 20
89.663794
 10
563.414856
 20
89.691617
 10
563.366754
 20
89.718879
 10
563.318465
 20
89.745586
 10
563.269994
 20
89.77174
 10
563.221345
 20
89.797345
 10
563.172523
 20
89.822407
 10
563.123535
 20
89.846928
 10
563.074387
 20
89.870899
 10
563.025088
 20
89.894305
 10
562.975646
 20
89.917129
 10
562.92607
 20
89.939354
 10
562.876369
 20
89.960964
 10
562.826552
 20
89.981943
 10
562.776626
 20
90.002274
 10
562.726602
 20
90.02194
 10
562.676487
 20
90.040926
 10
562.62629
 20
90.059214
 10
562.576021
 20
90.076788
 10
562.525686
 20
90.093632
 10
562.475296
 20
90.109729
 10
562.424859
 20
90.125079
 10
562.374381
 20
90.139769
 10
562.32387
 20
90.153907
 10
562.273332
 20
90.167604
 10
562.222774
 20
90.18097
 10
562.172202
 20
90.194116
 10
562.121624
 20
90.207151
  0
LINE
  5
F65
330
5663
100
AcDbEntity
  8
0
  6
Continuous
 62
     7
100
AcDbLine
 10
566.297532
 20
21.613012
 30
0.0
 11
566.297532
 21
84.784561
 31
0.0
  0
ARC
  5
F66
330
5663
100
AcDbEntity
  8
0
  6
Continuous
 62
     7
100
AcDbCircle
 10
567.08208
 20
-22.723019
 30
0.0
 40
34.88647021178196
100
AcDbArc
 50
79.907462
 51
98.174507
  0
LINE
  5
F67
330
5663
100
AcDbEntity
  8
0
  6
Continuous
 62
     7
100
AcDbLine
 10
554.907033
 20
20.196993
 30
0.0
 11
554.907033
 21
10.73092
 31
0.0
  0
LINE
  5
F68
330
5663
100
AcDbEntity
  8
0
  6
Continuous
 62
     7
100
AcDbLine
 10
554.907033
 20
83.368542
 30
0.0
 11
554.907033
 21
20.196993
 31
0.0
  0
LINE
  5
F69
330
5663
100
AcDbEntity
  8
0
  6
Continuous
 62
     7
100
AcDbLine
 10
554.907033
 20
92.834615
 30
0.0
 11
554.907033
 21
83.368542
 31
0.0
  0
LINE
  5
F6A
330
5663
100
AcDbEntity
  8
0
  6
Continuous
 62
     7
100
AcDbLine
 10
552.174982
 20
93.024084
 30
0.0
 11
552.174982
 21
10.920388
 31
0.0
  0
ARC
  5
F6B
330
5663
100
AcDbEntity
  8
0
  6
Continuous
 62
     7
100
AcDbCircle
 10
553.934796
 20
16.503904
 30
0.0
 40
5.854279671156664
100
AcDbArc
 50
252.506176
 51
279.559563
  0
ARC
  5
F6C
330
5663
100
AcDbEntity
  8
0
  6
Continuous
 62
     7
100
AcDbCircle
 10
560.733172
 20
85.539937
 30
0.0
 40
4.912284441519151
100
AcDbArc
 50
12.922886
 51
64.601562
  0
LWPOLYLINE
  5
F6D
330
5663
100
AcDbEntity
  8
0
  6
Continuous
 62
     7
100
AcDbPolyline
 90
        9
 70
   128
 43
0.0
 10
554.907033
 20
83.368542
 10
555.060024
 20
84.822373
 10
555.510417
 20
86.240393
 10
556.232952
 20
87.543076
 10
557.187109
 20
88.657365
 10
558.319376
 20
89.520768
 10
559.566254
 20
90.084864
 10
560.857814
 20
90.318017
 10
562.121624
 20
90.207151
  0
LINE
  5
F6E
330
5663
100
AcDbEntity
  8
0
  6
Continuous
 62
     7
100
AcDbLine
 10
551.674982
 20
93.248228
 30
0.0
 11
551.674982
 21
11.144532
 31
0.0
  0
LINE
  5
F6F
330
5663
100
AcDbEntity
  8
0
  6
Continuous
 62
     7
100
AcDbLine
 10
551.674982
 20
11.144532
 30
0.0
 11
552.174982
 21
10.920388
 31
0.0
  0
ARC
  5
F70
330
5663
100
AcDbEntity
  8
0
  6
Continuous
 62
     7
100
AcDbCircle
 10
559.623011
 20
20.193659
 30
0.0
 40
5.255379123967116
100
AcDbArc
 50
248.370772
 51
317.06133
  0
ARC
  5
F71
330
5663
100
AcDbEntity
  8
0
  6
Continuous
 62
     7
100
AcDbCircle
 10
559.754443
 20
19.766486
 30
0.0
 40
4.866488941536227
100
AcDbArc
 50
174.924776
 51
299.105871
  0
LINE
  5
F72
330
5663
100
AcDbEntity
  8
0
  6
Continuous
 62
     7
100
AcDbLine
 10
562.121624
 20
11.808991
 30
0.0
 11
554.907033
 21
10.73092
 31
0.0
  0
LWPOLYLINE
  5
F73
330
5663
100
AcDbEntity
  8
0
  6
Continuous
 62
     7
100
AcDbPolyline
 90
       13
 70
   128
 43
0.0
 10
596.158547
 20
163.743167
 10
596.304284
 20
163.686022
 10
597.040002
 20
163.59357
 10
597.77572
 20
163.795225
 10
598.399432
 20
164.260287
 10
598.816182
 20
164.917954
 10
598.962526
 20
165.668102
 10
598.816182
 20
166.396529
 10
598.399432
 20
166.992337
 10
597.77572
 20
167.364821
 10
597.040002
 20
167.457273
 10
596.304284
 20
167.255619
 10
596.154247
 20
167.174286
  0
ARC
  5
F74
330
5663
100
AcDbEntity
  8
0
  6
Continuous
 62
     7
100
AcDbCircle
 10
596.868255
 20
165.792638
 30
0.0
 40
2.919218018043938
100
AcDbArc
 50
309.636566
 51
45.557086
  0
LINE
  5
F75
330
5663
100
AcDbEntity
  8
0
  6
Continuous
 62
     7
100
AcDbLine
 10
596.158547
 20
166.621659
 30
0.0
 11
597.040002
 21
167.198454
 31
0.0
  0
LINE
  5
F76
330
5663
100
AcDbEntity
  8
0
  6
Continuous
 62
     7
100
AcDbLine
 10
597.040002
 20
167.198454
 30
0.0
 11
598.481895
 21
166.468948
 31
0.0
  0
LINE
  5
F77
330
5663
100
AcDbEntity
  8
0
  6
Continuous
 62
     7
100
AcDbLine
 10
598.481895
 20
166.468948
 30
0.0
 11
598.481895
 21
164.795916
 31
0.0
  0
LINE
  5
F78
330
5663
100
AcDbEntity
  8
0
  6
Continuous
 62
     7
100
AcDbLine
 10
598.481895
 20
164.795916
 30
0.0
 11
597.040002
 21
163.852389
 31
0.0
  0
LINE
  5
F79
330
5663
100
AcDbEntity
  8
0
  6
Continuous
 62
     7
100
AcDbLine
 10
596.158547
 20
164.298349
 30
0.0
 11
597.040002
 21
163.852389
 31
0.0
  0
LINE
  5
F7A
330
5663
100
AcDbEntity
  8
0
  6
Continuous
 62
     7
100
AcDbLine
 10
596.158547
 20
164.517025
 30
0.0
 11
596.488728
 21
164.349975
 31
0.0
  0
LINE
  5
F7B
330
5663
100
AcDbEntity
  8
0
  6
Continuous
 62
     7
100
AcDbLine
 10
596.488728
 20
164.349975
 30
0.0
 11
597.040002
 21
163.852389
 31
0.0
  0
LINE
  5
F7C
330
5663
100
AcDbEntity
  8
0
  6
Continuous
 62
     7
100
AcDbLine
 10
597.93062
 20
166.747858
 30
0.0
 11
597.93062
 21
165.293501
 31
0.0
  0
LINE
  5
F7D
330
5663
100
AcDbEntity
  8
0
  6
Continuous
 62
     7
100
AcDbLine
 10
597.93062
 20
165.293501
 30
0.0
 11
598.481895
 21
164.795916
 31
0.0
  0
LINE
  5
F7E
330
5663
100
AcDbEntity
  8
0
  6
Continuous
 62
     7
100
AcDbLine
 10
596.488728
 20
164.349975
 30
0.0
 11
597.93062
 21
165.293501
 31
0.0
  0
LWPOLYLINE
  5
F7F
330
5663
100
AcDbEntity
  8
0
  6
Continuous
 62
     7
100
AcDbPolyline
 90
        8
 70
   128
 43
0.0
 10
588.683313
 20
106.376177
 10
588.606978
 20
104.771906
 10
588.380428
 20
103.287637
 10
588.010944
 20
101.971076
 10
587.510402
 20
100.864538
 10
586.894889
 20
100.003588
 10
586.184189
 20
99.415899
 10
585.898059
 20
99.270262
  0
ARC
  5
F80
330
5663
100
AcDbEntity
  8
0
  6
Continuous
 62
     7
100
AcDbCircle
 10
571.891925
 20
106.711522
 30
0.0
 40
16.79473557146611
100
AcDbArc
 50
358.855883
 51
33.492326
  0
LWPOLYLINE
  5
F81
330
5663
100
AcDbEntity
  8
0
  6
Continuous
 62
     7
100
AcDbPolyline
 90
        8
 70
   128
 43
0.0
 10
588.683313
 20
149.842839
 10
588.606978
 20
148.238568
 10
588.380428
 20
146.754299
 10
588.010944
 20
145.437738
 10
587.510402
 20
144.3312
 10
586.894889
 20
143.470251
 10
586.184189
 20
142.882561
 10
585.898059
 20
142.736924
  0
ARC
  5
F82
330
5663
100
AcDbEntity
  8
0
  6
Continuous
 62
     7
100
AcDbCircle
 10
571.9649
 20
150.188709
 30
0.0
 40
16.72199034915717
100
AcDbArc
 50
358.814835
 51
33.934001
  0
LINE
  5
F83
330
5663
100
AcDbEntity
  8
0
  6
Continuous
 62
     7
100
AcDbLine
 10
581.394726
 20
83.374575
 30
0.0
 11
581.394726
 21
163.643011
 31
0.0
  0
ARC
  5
F84
330
5663
100
AcDbEntity
  8
0
  6
Continuous
 62
     7
100
AcDbCircle
 10
580.401491
 20
170.579826
 30
0.0
 40
7.007561639004125
100
AcDbArc
 50
260.187873
 51
278.148412
  0
LWPOLYLINE
  5
F85
330
5663
100
AcDbEntity
  8
0
  6
Continuous
 62
     7
100
AcDbPolyline
 90
        3
 70
     0
 43
0.0
 10
578.662676
 20
163.059739
 10
578.903521
 20
163.368305
 10
579.207276
 20
163.674772
  0
LINE
  5
F86
330
5663
100
AcDbEntity
  8
0
  6
Continuous
 62
     7
100
AcDbLine
 10
578.662676
 20
163.059739
 30
0.0
 11
578.662676
 21
84.336784
 31
0.0
  0
LWPOLYLINE
  5
F87
330
5663
100
AcDbEntity
  8
0
  6
Continuous
 62
     7
100
AcDbPolyline
 90
        3
 70
     0
 43
0.0
 10
579.207276
 20
83.406336
 10
578.903521
 20
83.855958
 10
578.662676
 20
84.336784
  0
ARC
  5
F88
330
5663
100
AcDbEntity
  8
0
  6
Continuous
 62
     7
100
AcDbCircle
 10
580.401491
 20
90.31139
 30
0.0
 40
7.007561639005459
100
AcDbArc
 50
260.187873
 51
278.148412
  0
LINE
  5
F89
330
5663
100
AcDbEntity
  8
0
  6
Continuous
 62
     7
100
AcDbLine
 10
581.394726
 20
163.643011
 30
0.0
 11
585.898059
 21
164.31594
 31
0.0
  0
LINE
  5
F8A
330
5663
100
AcDbEntity
  8
0
  6
Continuous
 62
     7
100
AcDbLine
 10
585.398059
 20
164.540084
 30
0.0
 11
585.898059
 21
164.31594
 31
0.0
  0
LINE
  5
F8B
330
5663
100
AcDbEntity
  8
0
  6
Continuous
 62
     7
100
AcDbLine
 10
580.461714
 20
163.80245
 30
0.0
 11
585.398059
 21
164.540084
 31
0.0
  0
ARC
  5
F8C
330
5663
100
AcDbEntity
  8
0
  6
Continuous
 62
     7
100
AcDbCircle
 10
580.210586
 20
165.596365
 30
0.0
 40
1.811407453257465
100
AcDbArc
 50
263.811082
 51
277.968968
  0
LINE
  5
F8D
330
5663
100
AcDbEntity
  8
0
  6
Continuous
 62
     7
100
AcDbLine
 10
579.207276
 20
163.674772
 30
0.0
 11
580.015304
 21
163.795515
 31
0.0
  0
LINE
  5
F8E
330
5663
100
AcDbEntity
  8
0
  6
Continuous
 62
     7
100
AcDbLine
 10
580.794726
 20
165.071094
 30
0.0
 11
560.744726
 21
174.059264
 31
0.0
  0
ARC
  5
F8F
330
5663
100
AcDbEntity
  8
0
  6
Continuous
 62
     7
100
AcDbCircle
 10
561.154952
 20
171.992355
 30
0.0
 40
2.107224853859636
100
AcDbArc
 50
101.225782
 51
161.44397
  0
LWPOLYLINE
  5
F90
330
5663
100
AcDbEntity
  8
0
  6
Continuous
 62
     7
100
AcDbPolyline
 90
        3
 70
     0
 43
0.0
 10
559.412676
 20
171.689278
 10
559.244901
 20
172.181023
 10
559.157276
 20
172.662941
  0
LINE
  5
F91
330
5663
100
AcDbEntity
  8
0
  6
Continuous
 62
     7
100
AcDbLine
 10
559.412676
 20
171.689278
 30
0.0
 11
578.662676
 21
163.059739
 31
0.0
  0
ARC
  5
F92
330
5663
100
AcDbEntity
  8
0
  6
Continuous
 62
     7
100
AcDbCircle
 10
581.204952
 20
163.004186
 30
0.0
 40
2.107224853859793
100
AcDbArc
 50
101.225782
 51
161.44397
  0
ARC
  5
F93
330
5663
100
AcDbEntity
  8
0
  6
Continuous
 62
     7
100
AcDbCircle
 10
580.453487
 20
163.543254
 30
0.0
 40
0.505608493695366
100
AcDbArc
 50
100.457711
 51
150.071068
  0
LINE
  5
F94
330
5663
100
AcDbEntity
  8
0
  6
Continuous
 62
     7
100
AcDbLine
 10
585.298059
 20
164.778098
 30
0.0
 11
580.361714
 21
164.040464
 31
0.0
  0
LINE
  5
F95
330
5663
100
AcDbEntity
  8
0
  6
Continuous
 62
     7
100
AcDbLine
 10
585.298059
 20
165.744024
 30
0.0
 11
585.298059
 21
164.778098
 31
0.0
  0
LINE
  5
F96
330
5663
100
AcDbEntity
  8
0
  6
Continuous
 62
     7
100
AcDbLine
 10
580.794726
 20
165.071094
 30
0.0
 11
585.298059
 21
165.744024
 31
0.0
  0
LINE
  5
F97
330
5663
100
AcDbEntity
  8
0
  6
Continuous
 62
     7
100
AcDbLine
 10
581.394726
 20
83.374575
 30
0.0
 11
585.898059
 21
84.047504
 31
0.0
  0
LINE
  5
F98
330
5663
100
AcDbEntity
  8
0
  6
Continuous
 62
     7
100
AcDbLine
 10
585.898059
 20
84.047504
 30
0.0
 11
585.898059
 21
164.31594
 31
0.0
  0
LINE
  5
F99
330
5663
100
AcDbEntity
  8
0
  6
Continuous
 62
     7
100
AcDbLine
 10
560.744726
 20
174.059264
 30
0.0
 11
565.248059
 21
174.732193
 31
0.0
  0
LINE
  5
F9A
330
5663
100
AcDbEntity
  8
0
  6
Continuous
 62
     7
100
AcDbLine
 10
585.298059
 20
165.744024
 30
0.0
 11
565.248059
 21
174.732193
 31
0.0
  0
LINE
  5
F9B
330
5663
100
AcDbEntity
  8
0
  6
Continuous
 62
     7
100
AcDbLine
 10
559.412676
 20
92.966323
 30
0.0
 11
559.412676
 21
171.689278
 31
0.0
  0
LINE
  5
F9C
330
5663
100
AcDbEntity
  8
0
  6
Continuous
 62
     7
100
AcDbLine
 10
578.662676
 20
84.336784
 30
0.0
 11
559.412676
 21
92.966323
 31
0.0
  0
ARC
  5
F9D
330
5663
100
AcDbEntity
  8
0
  6
Continuous
 62
     7
100
AcDbCircle
 10
580.571785
 20
83.928238
 30
0.0
 40
1.460913283849808
100
AcDbArc
 50
200.931046
 51
278.77788
  0
LWPOLYLINE
  5
F9E
330
5663
100
AcDbEntity
  8
0
  6
Continuous
 62
     7
100
AcDbPolyline
 90
        3
 70
     0
 43
0.0
 10
559.157276
 20
92.394505
 10
559.244901
 20
92.668676
 10
559.412676
 20
92.966323
  0
ARC
  5
F9F
330
5663
100
AcDbEntity
  8
0
  6
Continuous
 62
     7
100
AcDbCircle
 10
560.556901
 20
92.944986
 30
0.0
 40
1.503988477555736
100
AcDbArc
 50
201.469999
 51
245.222924
  0
LINE
  5
FA0
330
5663
100
AcDbEntity
  8
0
  6
Continuous
 62
     7
100
AcDbLine
 10
580.794726
 20
82.484436
 30
0.0
 11
585.298059
 21
83.157366
 31
0.0
  0
LINE
  5
FA1
330
5663
100
AcDbEntity
  8
0
  6
Continuous
 62
     7
100
AcDbLine
 10
585.298059
 20
83.957847
 30
0.0
 11
585.298059
 21
83.157366
 31
0.0
  0
LWPOLYLINE
  5
FA2
330
5663
100
AcDbEntity
  8
0
  6
Continuous
 62
     7
100
AcDbPolyline
 90
        5
 70
   128
 43
0.0
 10
559.157276
 20
172.662941
 10
559.145804
 20
172.737827
 10
559.176234
 20
172.812358
 10
559.247928
 20
172.88497
 10
559.255028
 20
172.890367
  0
LINE
  5
FA3
330
5663
100
AcDbEntity
  8
0
  6
Continuous
 62
     7
100
AcDbLine
 10
559.144726
 20
92.452401
 30
0.0
 11
559.157276
 21
92.394505
 31
0.0
  0
LINE
  5
FA4
330
5663
100
AcDbEntity
  8
0
  6
Continuous
 62
     7
100
AcDbLine
 10
592.933313
 20
166.290207
 30
0.0
 11
574.933313
 21
174.359386
 31
0.0
  0
LWPOLYLINE
  5
FA5
330
5663
100
AcDbEntity
  8
0
  6
Continuous
 62
     7
100
AcDbPolyline
 90
        9
 70
   128
 43
0.0
 10
574.933313
 20
174.359386
 10
574.738222
 20
174.409723
 10
574.550629
 20
174.383885
 10
574.377742
 20
174.282866
 10
574.226206
 20
174.110547
 10
574.101843
 20
173.873551
 10
574.009433
 20
173.580986
 10
573.952527
 20
173.244094
 10
573.933313
 20
172.875822
  0
LINE
  5
FA6
330
5663
100
AcDbEntity
  8
0
  6
Continuous
 62
     7
100
AcDbLine
 10
573.933313
 20
172.875822
 30
0.0
 11
573.933313
 21
170.8387
 31
0.0
  0
LINE
  5
FA7
330
5663
100
AcDbEntity
  8
0
  6
Continuous
 62
     7
100
AcDbLine
 10
585.898059
 20
89.272181
 30
0.0
 11
592.933313
 21
86.118363
 31
0.0
  0
LWPOLYLINE
  5
FA8
330
5663
100
AcDbEntity
  8
0
  6
Continuous
 62
     7
100
AcDbPolyline
 90
        9
 70
   128
 43
0.0
 10
592.933313
 20
86.118363
 10
593.128403
 20
86.068027
 10
593.315996
 20
86.093864
 10
593.488883
 20
86.194884
 10
593.640419
 20
86.367202
 10
593.764782
 20
86.604198
 10
593.857192
 20
86.896763
 10
593.914098
 20
87.233655
 10
593.933313
 20
87.601927
  0
LINE
  5
FA9
330
5663
100
AcDbEntity
  8
0
  6
Continuous
 62
     7
100
AcDbLine
 10
593.933313
 20
87.601927
 30
0.0
 11
593.933313
 21
163.910067
 31
0.0
  0
ARC
  5
FAA
330
5663
100
AcDbEntity
  8
0
  6
Continuous
 62
     7
100
AcDbCircle
 10
591.197695
 20
164.160857
 30
0.0
 40
2.747088864969561
100
AcDbArc
 50
354.762009
 51
50.816776
  0
LINE
  5
FAB
330
5663
100
AcDbEntity
  8
0
  6
Continuous
 62
     7
100
AcDbLine
 10
594.366325
 20
163.974772
 30
0.0
 11
593.933313
 21
163.910067
 31
0.0
  0
ARC
  5
FAC
330
5663
100
AcDbEntity
  8
0
  6
Continuous
 62
     7
100
AcDbCircle
 10
591.630708
 20
164.225562
 30
0.0
 40
2.747088864969531
100
AcDbArc
 50
354.762009
 51
50.816776
  0
LINE
  5
FAD
330
5663
100
AcDbEntity
  8
0
  6
Continuous
 62
     7
100
AcDbLine
 10
593.366325
 20
166.354912
 30
0.0
 11
592.933313
 21
166.290207
 31
0.0
  0
LINE
  5
FAE
330
5663
100
AcDbEntity
  8
0
  6
Continuous
 62
     7
100
AcDbLine
 10
594.366325
 20
87.666632
 30
0.0
 11
593.933313
 21
87.601927
 31
0.0
  0
LINE
  5
FAF
330
5663
100
AcDbEntity
  8
0
  6
Continuous
 62
     7
100
AcDbLine
 10
594.366325
 20
87.666632
 30
0.0
 11
594.366325
 21
163.974772
 31
0.0
  0
LINE
  5
FB0
330
5663
100
AcDbEntity
  8
0
  6
Continuous
 62
     7
100
AcDbLine
 10
575.366325
 20
174.424091
 30
0.0
 11
574.933313
 21
174.359386
 31
0.0
  0
LINE
  5
FB1
330
5663
100
AcDbEntity
  8
0
  6
Continuous
 62
     7
100
AcDbLine
 10
593.366325
 20
166.354912
 30
0.0
 11
575.366325
 21
174.424091
 31
0.0
  0
LWPOLYLINE
  5
FB2
330
5663
100
AcDbEntity
  8
0
  6
Continuous
 62
     7
100
AcDbPolyline
 90
        8
 70
   128
 43
0.0
 10
593.661902
 20
86.136882
 10
593.749009
 20
86.158569
 10
593.921896
 20
86.259588
 10
594.073432
 20
86.431907
 10
594.197795
 20
86.668903
 10
594.290205
 20
86.961468
 10
594.347111
 20
87.29836
 10
594.366325
 20
87.666632
  0
LWPOLYLINE
  5
FB3
330
5663
100
AcDbEntity
  8
0
  6
Continuous
 62
     7
100
AcDbPolyline
 90
        3
 70
   128
 43
0.0
 10
575.366325
 20
174.424091
 10
575.171235
 20
174.474427
 10
575.070749
 20
174.470277
  0
LWPOLYLINE
  5
FB4
330
5663
100
AcDbEntity
  8
0
  6
Continuous
 62
     7
100
AcDbPolyline
 90
        3
 70
   128
 43
0.0
 10
580.679021
 20
183.710481
 10
581.732561
 20
184.163781
 10
581.934029
 20
184.235769
  0
LWPOLYLINE
  5
FB5
330
5663
100
AcDbEntity
  8
0
  6
Continuous
 62
     7
100
AcDbPolyline
 90
       32
 70
   128
 43
0.0
 10
604.407071
 20
184.235769
 10
604.504206
 20
184.201525
 10
605.580091
 20
183.751755
 10
606.391487
 20
183.266234
 10
606.921103
 20
182.75531
 10
607.157649
 20
182.229872
 10
607.096084
 20
181.70112
 10
606.737721
 20
181.180323
 10
606.090197
 20
180.67858
 10
605.167314
 20
180.206586
 10
603.98874
 20
179.774399
 10
602.579595
 20
179.391233
 10
600.969913
 20
179.065252
 10
599.194
 20
178.803405
 10
597.289709
 20
178.611272
 10
595.297625
 20
178.492949
 10
593.260206
 20
178.450957
 10
591.220876
 20
178.486192
 10
589.2231
 20
178.597902
 10
587.309457
 20
178.783706
 10
585.520733
 20
179.039645
 10
583.895051
 20
179.360263
 10
582.467061
 20
179.738727
 10
581.267197
 20
180.166971
 10
580.321032
 20
180.635868
 10
579.648733
 20
181.135423
 10
579.264628
 20
181.65499
 10
579.176903
 20
182.183494
 10
579.387428
 20
182.709673
 10
579.891717
 20
183.22231
 10
580.679021
 20
183.710481
 10
580.679021
 20
183.710481
  0
LWPOLYLINE
  5
FB6
330
5663
100
AcDbEntity
  8
0
  6
Continuous
 62
     7
100
AcDbPolyline
 90
       23
 70
   128
 43
0.0
 10
607.17055
 20
180.142498
 10
607.096084
 20
179.769268
 10
606.737721
 20
179.248471
 10
606.090197
 20
178.746728
 10
605.167314
 20
178.274734
 10
603.98874
 20
177.842548
 10
602.579595
 20
177.459381
 10
600.969913
 20
177.1334
 10
599.194
 20
176.871553
 10
597.289709
 20
176.679421
 10
595.297625
 20
176.561097
 10
593.260206
 20
176.519106
 10
591.220876
 20
176.55434
 10
589.2231
 20
176.66605
 10
587.309457
 20
176.851854
 10
585.520733
 20
177.107793
 10
583.895051
 20
177.428411
 10
582.467061
 20
177.806876
 10
581.267197
 20
178.23512
 10
580.321032
 20
178.704016
 10
579.648733
 20
179.203571
 10
579.264628
 20
179.723138
 10
579.17055
 20
180.142498
  0
LWPOLYLINE
  5
FB7
330
5663
100
AcDbEntity
  8
0
  6
Continuous
 62
     7
100
AcDbPolyline
 90
       23
 70
   128
 43
0.0
 10
579.17055
 20
10.332738
 10
579.21943
 20
10.030212
 10
579.538291
 20
9.507697
 10
580.1477
 20
9.002766
 10
581.034668
 20
8.526182
 10
582.180291
 20
8.0881
 10
583.560153
 20
7.69786
 10
585.144843
 20
7.363777
 10
586.900588
 20
7.092973
 10
588.789966
 20
6.891218
 10
590.772708
 20
6.762814
 10
592.806557
 20
6.710496
 10
594.848163
 20
6.73538
 10
596.854014
 20
6.836935
 10
598.781358
 20
7.012998
 10
600.589117
 20
7.259815
 10
602.238763
 20
7.572126
 10
603.695136
 20
7.943274
 10
604.927195
 20
8.36535
 10
605.908682
 20
8.829357
 10
606.618677
 20
9.325407
 10
607.042049
 20
9.842925
 10
607.17055
 20
10.332738
  0
LWPOLYLINE
  5
FB8
330
5663
100
AcDbEntity
  8
0
  6
Continuous
 62
     7
100
AcDbPolyline
 90
       11
 70
   128
 43
0.0
 10
607.17055
 20
94.368285
 10
607.134176
 20
94.107255
 10
606.838526
 20
93.583827
 10
606.251567
 20
93.077118
 10
605.385809
 20
92.597927
 10
604.259704
 20
92.156469
 10
602.897253
 20
91.762152
 10
601.327494
 20
91.42338
 10
599.583883
 20
91.147374
 10
597.703584
 20
90.940016
 10
596.158547
 20
90.828307
  0
LWPOLYLINE
  5
FB9
330
5663
100
AcDbEntity
  8
0
  6
Continuous
 62
     7
100
AcDbPolyline
 90
       11
 70
   128
 43
0.0
 10
607.164479
 20
97.932107
 10
607.134176
 20
97.777773
 10
606.838526
 20
97.254345
 10
606.251567
 20
96.747636
 10
605.385809
 20
96.268445
 10
604.259704
 20
95.826987
 10
602.897253
 20
95.43267
 10
601.327494
 20
95.093898
 10
599.583883
 20
94.817892
 10
597.703584
 20
94.610534
 10
596.158547
 20
94.498825
  0
LINE
  5
FBA
330
5663
100
AcDbEntity
  8
0
  6
Continuous
 62
     7
100
AcDbLine
 10
583.986974
 20
164.582184
 30
0.0
 11
584.139102
 21
164.351959
 31
0.0
  0
LINE
  5
FBB
330
5663
100
AcDbEntity
  8
0
  6
Continuous
 62
     7
100
AcDbLine
 10
594.866325
 20
166.648406
 30
0.0
 11
594.866325
 21
84.544711
 31
0.0
  0
LINE
  5
FBC
330
5663
100
AcDbEntity
  8
0
  6
Continuous
 62
     7
100
AcDbLine
 10
594.866325
 20
166.648406
 30
0.0
 11
573.965301
 21
176.018079
 31
0.0
  0
LINE
  5
FBD
330
5663
100
AcDbEntity
  8
0
  6
Continuous
 62
     7
100
AcDbLine
 10
594.866325
 20
84.544711
 30
0.0
 11
585.898059
 21
88.565075
 31
0.0
  0
LINE
  5
FBE
330
5663
100
AcDbEntity
  8
0
  6
Continuous
 62
     7
100
AcDbLine
 10
595.158547
 20
84.588377
 30
0.0
 11
594.866325
 21
84.544711
 31
0.0
  0
LINE
  5
FBF
330
5663
100
AcDbEntity
  8
0
  6
Continuous
 62
     7
100
AcDbLine
 10
595.158547
 20
166.692072
 30
0.0
 11
595.158547
 21
84.588377
 31
0.0
  0
LINE
  5
FC0
330
5663
100
AcDbEntity
  8
0
  6
Continuous
 62
     7
100
AcDbLine
 10
595.158547
 20
166.692072
 30
0.0
 11
594.866325
 21
166.648406
 31
0.0
  0
LWPOLYLINE
  5
FC1
330
5663
100
AcDbEntity
  8
0
  6
Continuous
 62
     7
100
AcDbPolyline
 90
        9
 70
   128
 43
0.0
 10
596.081071
 20
167.28304
 10
596.145691
 20
167.198958
 10
596.155806
 20
167.113269
 10
596.111139
 20
167.028323
 10
596.012915
 20
166.946449
 10
595.863827
 20
166.869895
 10
595.667966
 20
166.800759
 10
595.430704
 20
166.740938
 10
595.158547
 20
166.692072
  0
LINE
  5
FC2
330
5663
100
AcDbEntity
  8
0
  6
Continuous
 62
     7
100
AcDbLine
 10
588.242645
 20
174.358076
 30
0.0
 11
596.081071
 21
167.28304
 31
0.0
  0
LWPOLYLINE
  5
FC3
330
5663
100
AcDbEntity
  8
0
  6
Continuous
 62
     7
100
AcDbPolyline
 90
        9
 70
   128
 43
0.0
 10
594.074248
 20
176.500653
 10
592.648512
 20
176.435121
 10
591.31421
 20
176.289522
 10
590.137561
 20
176.07108
 10
589.176962
 20
175.790637
 10
588.480086
 20
175.462111
 10
588.081518
 20
175.101806
 10
588.00104
 20
174.727604
 10
588.242645
 20
174.358076
  0
ARC
  5
FC4
330
5663
100
AcDbEntity
  8
0
  6
Continuous
 62
     7
100
AcDbCircle
 10
580.128212
 20
180.132453
 30
0.0
 40
1.055541018312117
100
AcDbArc
 50
155.13085
 51
222.594963
  0
LWPOLYLINE
  5
FC5
330
5663
100
AcDbEntity
  8
0
  6
Continuous
 62
     7
100
AcDbPolyline
 90
       13
 70
   128
 43
0.0
 10
607.17055
 20
180.576358
 10
607.186302
 20
180.540836
 10
607.260616
 20
180.005531
 10
607.031369
 20
179.473176
 10
606.5035
 20
178.955242
 10
605.688381
 20
178.462886
 10
604.603574
 20
178.006716
 10
603.27245
 20
177.59656
 10
601.723688
 20
177.241255
 10
599.990654
 20
176.948455
 10
598.110685
 20
176.724469
 10
596.124284
 20
176.574121
 10
594.074248
 20
176.500653
  0
LWPOLYLINE
  5
FC6
330
5663
100
AcDbEntity
  8
0
  6
Continuous
 62
     7
100
AcDbPolyline
 90
        9
 70
   128
 43
0.0
 10
574.643415
 20
176.288832
 10
575.953159
 20
176.57419
 10
577.092676
 20
176.904884
 10
578.038772
 20
177.274183
 10
578.772191
 20
177.674569
 10
579.278002
 20
178.097892
 10
579.545913
 20
178.535538
 10
579.570468
 20
178.978597
 10
579.351168
 20
179.418051
  0
LINE
  5
FC7
330
5663
100
AcDbEntity
  8
0
  6
Continuous
 62
     7
100
AcDbLine
 10
574.104421
 20
176.187478
 30
0.0
 11
574.643415
 21
176.288832
 31
0.0
  0
LWPOLYLINE
  5
FC8
330
5663
100
AcDbEntity
  8
0
  6
Continuous
 62
     7
100
AcDbPolyline
 90
        9
 70
   128
 43
0.0
 10
573.965301
 20
176.018079
 10
573.926993
 20
176.039586
 10
573.90447
 20
176.062539
 10
573.898485
 20
176.086171
 10
573.90924
 20
176.109689
 10
573.936374
 20
176.132306
 10
573.978979
 20
176.153265
 10
574.035627
 20
176.171863
 10
574.104421
 20
176.187478
  0
LWPOLYLINE
  5
FC9
330
5663
100
AcDbEntity
  8
0
  6
Continuous
 62
     7
100
AcDbPolyline
 90
        8
 70
   128
 43
0.0
 10
596.158547
 20
85.036665
 10
596.155806
 20
85.009574
 10
596.111139
 20
84.924627
 10
596.012915
 20
84.842754
 10
595.863827
 20
84.7662
 10
595.667966
 20
84.697064
 10
595.430704
 20
84.637243
 10
595.158547
 20
84.588377
  0
LWPOLYLINE
  5
FCA
330
5663
100
AcDbEntity
  8
0
  6
Continuous
 62
     7
100
AcDbPolyline
 90
      137
 70
     0
 43
0.0
 10
596.158547
 20
163.922092
 10
596.219716
 20
163.863628
 10
596.281155
 20
163.80558
 10
596.343134
 20
163.748363
 10
596.405922
 20
163.692392
 10
596.46979
 20
163.638083
 10
596.535006
 20
163.585852
 10
596.601842
 20
163.536114
 10
596.670566
 20
163.489285
 10
596.741442
 20
163.445772
 10
596.814519
 20
163.405775
 10
596.8896
 20
163.369251
 10
596.966479
 20
163.336144
 10
597.044945
 20
163.306398
 10
597.124789
 20
163.279958
 10
597.205803
 20
163.256767
 10
597.287779
 20
163.23677
 10
597.370506
 20
163.219911
 10
597.453776
 20
163.206134
 10
597.537397
 20
163.195395
 10
597.62126
 20
163.187703
 10
597.705279
 20
163.183082
 10
597.789367
 20
163.181558
 10
597.87344
 20
163.183156
 10
597.957411
 20
163.187901
 10
598.041196
 20
163.195817
 10
598.124708
 20
163.20693
 10
598.207862
 20
163.221264
 10
598.290572
 20
163.238844
 10
598.372742
 20
163.259651
 10
598.454268
 20
163.283631
 10
598.535047
 20
163.310729
 10
598.614973
 20
163.340889
 10
598.693942
 20
163.374056
 10
598.771851
 20
163.410174
 10
598.848594
 20
163.449187
 10
598.924068
 20
163.491041
 10
598.998169
 20
163.53568
 10
599.070801
 20
163.58304
 10
599.141895
 20
163.633048
 10
599.211381
 20
163.685624
 10
599.279189
 20
163.740692
 10
599.345251
 20
163.798175
 10
599.409497
 20
163.857994
 10
599.471859
 20
163.920072
 10
599.532267
 20
163.984332
 10
599.590652
 20
164.050697
 10
599.646947
 20
164.119086
 10
599.701099
 20
164.189403
 10
599.753057
 20
164.261549
 10
599.802773
 20
164.335422
 10
599.850196
 20
164.410921
 10
599.895278
 20
164.487945
 10
599.937969
 20
164.566393
 10
599.978219
 20
164.646165
 10
600.015979
 20
164.72716
 10
600.0512
 20
164.809276
 10
600.083842
 20
164.892406
 10
600.11388
 20
164.976436
 10
600.141287
 20
165.06125
 10
600.166039
 20
165.146731
 10
600.188109
 20
165.232765
 10
600.207472
 20
165.319236
 10
600.224103
 20
165.406027
 10
600.237976
 20
165.493025
 10
600.249065
 20
165.580112
 10
600.257349
 20
165.667173
 10
600.262827
 20
165.754096
 10
600.265502
 20
165.840766
 10
600.265379
 20
165.927071
 10
600.262463
 20
166.012896
 10
600.256759
 20
166.09813
 10
600.248271
 20
166.182659
 10
600.237003
 20
166.266369
 10
600.222961
 20
166.349147
 10
600.20615
 20
166.430882
 10
600.186588
 20
166.511471
 10
600.164309
 20
166.590826
 10
600.139343
 20
166.668857
 10
600.111724
 20
166.745473
 10
600.081482
 20
166.820587
 10
600.048651
 20
166.894107
 10
600.013263
 20
166.965944
 10
599.975349
 20
167.03601
 10
599.934941
 20
167.104213
 10
599.89208
 20
167.170474
 10
599.846818
 20
167.234725
 10
599.799211
 20
167.296903
 10
599.749312
 20
167.356944
 10
599.697176
 20
167.414783
 10
599.642859
 20
167.470357
 10
599.586415
 20
167.523601
 10
599.527899
 20
167.574451
 10
599.467365
 20
167.622844
 10
599.404871
 20
167.668717
 10
599.340486
 20
167.712028
 10
599.274283
 20
167.752741
 10
599.206338
 20
167.790819
 10
599.136724
 20
167.826227
 10
599.065514
 20
167.858929
 10
598.992784
 20
167.888888
 10
598.918608
 20
167.916069
 10
598.843059
 20
167.940435
 10
598.766212
 20
167.96195
 10
598.688159
 20
167.980585
 10
598.609014
 20
167.996318
 10
598.528895
 20
168.009128
 10
598.44792
 20
168.018995
 10
598.366207
 20
168.025898
 10
598.283872
 20
168.029817
 10
598.201034
 20
168.030731
 10
598.11781
 20
168.028619
 10
598.034318
 20
168.023461
 10
597.950668
 20
168.015247
 10
597.866933
 20
168.004029
 10
597.783174
 20
167.989879
 10
597.69945
 20
167.972867
 10
597.615822
 20
167.953066
 10
597.532349
 20
167.930548
 10
597.449092
 20
167.905384
 10
597.366111
 20
167.877647
 10
597.283465
 20
167.847409
 10
597.201223
 20
167.814734
 10
597.119578
 20
167.779592
 10
597.038831
 20
167.741869
 10
596.959286
 20
167.701448
 10
596.881244
 20
167.658212
 10
596.805011
 20
167.612047
 10
596.73089
 20
167.562834
 10
596.659184
 20
167.510459
 10
596.590196
 20
167.454804
 10
596.524227
 20
167.395755
 10
596.461287
 20
167.333446
 10
596.40082
 20
167.268485
 10
596.342209
 20
167.201534
 10
596.284835
 20
167.133258
 10
596.228079
 20
167.064319
  0
LWPOLYLINE
  5
FCB
330
5663
100
AcDbEntity
  8
0
  6
Continuous
 62
     7
100
AcDbPolyline
 90
       11
 70
   128
 43
0.0
 10
607.27055
 20
98.038803
 10
607.260616
 20
97.901836
 10
607.031369
 20
97.369481
 10
606.5035
 20
96.851546
 10
605.688381
 20
96.359191
 10
604.603574
 20
95.903021
 10
603.27245
 20
95.492865
 10
601.723688
 20
95.13756
 10
599.990654
 20
94.84476
 10
598.110685
 20
94.620773
 10
596.158547
 20
94.472338
  0
ARC
  5
FCC
330
5663
100
AcDbEntity
  8
0
  6
Continuous
 62
     8
100
AcDbCircle
 10
560.749432
 20
84.728482
 30
0.0
 40
5.039262965747652
100
AcDbArc
 50
358.105606
 51
49.7454
  0
LWPOLYLINE
  5
FCD
330
5663
100
AcDbEntity
  8
0
  6
Continuous
 62
     8
100
AcDbPolyline
 90
        7
 70
   128
 43
0.0
 10
565.785941
 20
84.561897
 10
565.81781
 20
84.567808
 10
565.844611
 20
84.575214
 10
565.865315
 20
84.583831
 10
565.879126
 20
84.593328
 10
565.885512
 20
84.60334
 10
565.885941
 20
84.606726
  0
ARC
  5
FCE
330
5663
100
AcDbEntity
  8
0
  6
Continuous
 62
     8
100
AcDbCircle
 10
560.450694
 20
19.99041
 30
0.0
 40
4.719271381231597
100
AcDbArc
 50
176.535846
 51
247.667063
  0
LWPOLYLINE
  5
FCF
330
5663
100
AcDbEntity
  8
0
  6
Continuous
 62
     8
100
AcDbPolyline
 90
        7
 70
   128
 43
0.0
 10
565.785941
 20
21.776718
 10
565.81781
 20
21.782629
 10
565.844611
 20
21.790035
 10
565.865315
 20
21.798652
 10
565.879126
 20
21.808149
 10
565.885512
 20
21.818161
 10
565.885941
 20
21.821547
  0
LINE
  5
FD0
330
5663
100
AcDbEntity
  8
0
  6
Continuous
 62
     8
100
AcDbLine
 10
584.606338
 20
83.054003
 30
0.0
 11
584.606338
 21
9.365536
 31
0.0
  0
LINE
  5
FD1
330
5663
100
AcDbEntity
  8
0
  6
Continuous
 62
     8
100
AcDbLine
 10
573.195533
 20
85.631145
 30
0.0
 11
573.195533
 21
11.623618
 31
0.0
  0
LINE
  5
FD2
330
5663
100
AcDbEntity
  8
0
  6
Continuous
 62
     8
100
AcDbLine
 10
562.121624
 20
90.595443
 30
0.0
 11
562.121624
 21
90.207151
 31
0.0
  0
LINE
  5
FD3
330
5663
100
AcDbEntity
  8
0
  6
Continuous
 62
     8
100
AcDbLine
 10
566.297532
 20
84.784561
 30
0.0
 11
565.849428
 21
84.985441
 31
0.0
  0
LINE
  5
FD4
330
5663
100
AcDbEntity
  8
0
  6
Continuous
 62
     8
100
AcDbLine
 10
566.297532
 20
21.613012
 30
0.0
 11
565.859035
 21
21.809585
 31
0.0
  0
LINE
  5
FD5
330
5663
100
AcDbEntity
  8
0
  6
Continuous
 62
     8
100
AcDbLine
 10
580.675001
 20
163.834321
 30
0.0
 11
580.522872
 21
164.064546
 31
0.0
  0
LINE
  5
FD6
330
5663
100
AcDbEntity
  8
0
  6
Continuous
 62
     8
100
AcDbLine
 10
573.965301
 20
176.018079
 30
0.0
 11
573.965301
 21
173.346196
 31
0.0
  0
LINE
  5
FD7
330
5663
100
AcDbEntity
  8
0
  6
Continuous
 62
     8
100
AcDbLine
 10
594.074248
 20
176.500653
 30
0.0
 11
594.074248
 21
169.094417
 31
0.0
  0
LINE
  5
FD8
330
5663
100
AcDbEntity
  8
0
  6
Continuous
 62
     8
100
AcDbLine
 10
579.351168
 20
179.418051
 30
0.0
 11
579.351168
 21
178.184949
 31
0.0
  0
LINE
  5
FDA
330
5663
100
AcDbEntity
  8
0
100
AcDbLine
 10
-59.696437
 20
534.682891
 30
0.0
 11
453.446048
 21
534.520748
 31
0.0
  0
LINE
  5
FDB
330
5663
100
AcDbEntity
  8
0
100
AcDbLine
 10
966.588533
 20
534.682891
 30
0.0
 11
453.446048
 21
534.520748
 31
0.0
  0
LINE
  5
FDC
330
5663
100
AcDbEntity
  8
0
100
AcDbLine
 10
-59.696437
 20
534.682891
 30
0.0
 11
-59.696437
 21
-56.424554
 31
0.0
  0
LINE
  5
FDD
330
5663
100
AcDbEntity
  8
0
100
AcDbLine
 10
966.588533
 20
534.682891
 30
0.0
 11
966.588533
 21
-56.424554
 31
0.0
  0
LINE
  5
FDE
330
5663
100
AcDbEntity
  8
0
100
AcDbLine
 10
-59.696437
 20
-56.424554
 30
0.0
 11
453.446048
 21
-56.586697
 31
0.0
  0
LINE
  5
FDF
330
5663
100
AcDbEntity
  8
0
100
AcDbLine
 10
453.446048
 20
-56.586697
 30
0.0
 11
966.588533
 21
-56.424554
 31
0.0
  0
LINE
  5
FE0
330
5663
100
AcDbEntity
  8
0
100
AcDbLine
 10
-59.696437
 20
534.682891
 30
0.0
 11
-59.696437
 21
606.550696
 31
0.0
  0
LINE
  5
FE3
330
5663
100
AcDbEntity
  8
0
100
AcDbLine
 10
966.588533
 20
534.682891
 30
0.0
 11
966.588533
 21
606.550696
 31
0.0
  0
LINE
  5
FE4
330
5663
100
AcDbEntity
  8
0
100
AcDbLine
 10
966.588533
 20
606.550696
 30
0.0
 11
-59.696437
 21
606.550696
 31
0.0
  0
INSERT
  5
57DA
330
5663
100
AcDbEntity
  8
0
100
AcDbBlockReference
  2
Appunti30973
 10
112.459934
 20
272.927938
 30
0.0
  0
LINE
  5
57DD
330
5663
100
AcDbEntity
  8
ASSI
100
AcDbLine
 10
103.094136
 20
409.795976
 30
0.0
 11
201.89954
 21
409.795976
 31
0.0
  0
CIRCLE
  5
57DE
330
5663
100
AcDbEntity
  8
0
  6
HIDDEN
 62
     1
100
AcDbCircle
 10
154.459934
 20
387.295976
 30
0.0
 40
10.0
  0
CIRCLE
  5
57DF
330
5663
100
AcDbEntity
  8
0
  6
HIDDEN
 62
     1
100
AcDbCircle
 10
154.459934
 20
432.295976
 30
0.0
 40
9.999999999999986
  0
INSERT
  5
57E0
330
5663
100
AcDbEntity
  8
ASSI
100
AcDbBlockReference
  2
SW_CENTERMARKSYMBOL_0
 10
154.459934
 20
387.295976
 30
0.0
  0
INSERT
  5
57E1
330
5663
100
AcDbEntity
  8
ASSI
100
AcDbBlockReference
  2
SW_CENTERMARKSYMBOL_1
 10
154.459934
 20
387.295976
 30
0.0
  0
INSERT
  5
57E2
330
5663
100
AcDbEntity
  8
ASSI
100
AcDbBlockReference
  2
SW_CENTERMARKSYMBOL_2
 10
154.459934
 20
432.295976
 30
0.0
  0
LINE
  5
57E3
330
5663
100
AcDbEntity
  8
ASSI
100
AcDbLine
 10
129.459934
 20
468.728716
 30
0.0
 11
129.459934
 21
265.01965
 31
0.0
  0
INSERT
  5
5A76
330
5663
100
AcDbEntity
  8
0
100
AcDbBlockReference
  2
Appunti31283
 10
-36.299952
 20
270.743919
 30
0.0
  0
INSERT
  5
5B13
330
5663
100
AcDbEntity
  8
0
100
AcDbBlockReference
  2
Appunti31446
 10
286.218023
 20
272.927938
 30
0.0
  0
INSERT
  5
5B91
330
5663
100
AcDbEntity
  8
0
100
AcDbBlockReference
  2
Appunti31783
 10
112.459934
 20
94.842536
 30
0.0
  0
LINE
  5
5B93
330
5663
100
AcDbEntity
  8
0
100
AcDbLine
 10
127.459934
 20
157.042536
 30
0.0
 11
82.459934
 21
157.042536
 31
0.0
  0
LINE
  5
5B94
330
5663
100
AcDbEntity
  8
0
100
AcDbLine
 10
82.459934
 20
97.042536
 30
0.0
 11
112.459934
 21
97.042536
 31
0.0
  0
LINE
  5
5B95
330
5663
100
AcDbEntity
  8
0
100
AcDbLine
 10
82.459934
 20
157.042536
 30
0.0
 11
82.459934
 21
97.042536
 31
0.0
  0
LINE
  5
5B96
330
5663
100
AcDbEntity
  8
0
100
AcDbLine
 10
112.459934
 20
97.042536
 30
0.0
 11
112.459934
 21
147.042536
 31
0.0
  0
LINE
  5
5B97
330
5663
100
AcDbEntity
  8
0
100
AcDbLine
 10
112.459934
 20
147.042536
 30
0.0
 11
127.459934
 21
147.042536
 31
0.0
  0
LINE
  5
5B98
330
5663
100
AcDbEntity
  8
0
100
AcDbLine
 10
127.459934
 20
147.042536
 30
0.0
 11
127.459934
 21
157.042536
 31
0.0
  0
LINE
  5
5B99
330
5663
100
AcDbEntity
  8
0
 62
     1
100
AcDbLine
 10
117.959934
 20
134.042536
 30
0.0
 11
117.959934
 21
144.042536
 31
0.0
  0
LINE
  5
5B9A
330
5663
100
AcDbEntity
  8
0
 62
     1
100
AcDbLine
 10
216.654322
 20
134.042536
 30
0.0
 11
117.959934
 21
134.042536
 31
0.0
  0
LINE
  5
5B9B
330
5663
100
AcDbEntity
  8
0
 62
     1
100
AcDbLine
 10
217.959934
 20
144.042536
 30
0.0
 11
117.959934
 21
144.042536
 31
0.0
  0
LINE
  5
5B9C
330
5663
100
AcDbEntity
  8
0
 62
     1
100
AcDbLine
 10
217.959934
 20
144.042536
 30
0.0
 11
216.654322
 21
140.74717
 31
0.0
  0
LINE
  5
5B9D
330
5663
100
AcDbEntity
  8
0
 62
     1
100
AcDbLine
 10
216.654322
 20
140.74717
 30
0.0
 11
217.583364
 21
137.301972
 31
0.0
  0
LINE
  5
5B9E
330
5663
100
AcDbEntity
  8
0
 62
     1
100
AcDbLine
 10
217.583364
 20
137.301972
 30
0.0
 11
216.654322
 21
134.042536
 31
0.0
  0
LINE
  5
5BBE
330
5663
100
AcDbEntity
  8
ASSI
100
AcDbLine
 10
129.459934
 20
108.942536
 30
0.0
 11
129.459934
 21
151.341529
 31
0.0
  0
LINE
  5
5BBF
330
5663
100
AcDbEntity
  8
ASSI
100
AcDbLine
 10
129.459934
 20
108.942536
 30
0.0
 11
129.459934
 21
90.513178
 31
0.0
  0
LINE
  5
5BC0
330
5663
100
AcDbEntity
  8
ASSI
100
AcDbLine
 10
129.459934
 20
108.942536
 30
0.0
 11
103.087907
 21
108.942536
 31
0.0
  0
LINE
  5
5BC1
330
5663
100
AcDbEntity
  8
ASSI
100
AcDbLine
 10
129.459934
 20
108.942536
 30
0.0
 11
146.277885
 21
108.942536
 31
0.0
  0
LINE
  5
5BC2
330
5663
100
AcDbEntity
  8
0
  6
Continuous
 62
     1
100
AcDbLine
 10
144.459934
 20
144.042536
 30
0.0
 11
144.459934
 21
134.042536
 31
0.0
  0
LINE
  5
5BC3
330
5663
100
AcDbEntity
  8
0
  6
Continuous
 62
     1
100
AcDbLine
 10
164.459934
 20
144.042536
 30
0.0
 11
164.459934
 21
134.042536
 31
0.0
  0
ARC
  5
5BC4
330
5663
100
AcDbEntity
  8
ASSI
100
AcDbCircle
 10
129.459934
 20
108.942536
 30
0.0
 40
36.93589040486231
100
AcDbArc
 50
12.289409
 51
109.967358
  0
INSERT
  5
5BC5
330
5663
100
AcDbEntity
  8
TRATTEGGIO
 62
     4
100
AcDbBlockReference
  2
*X8
 10
0.0
 20
0.0
 30
0.0
  0
POINT
  5
5BC6
330
5663
100
AcDbEntity
  8
0
  6
HIDDEN
 62
     7
100
AcDbPoint
 10
129.459934
 20
145.878426
 30
0.0
  0
POINT
  5
5BC7
330
5663
100
AcDbEntity
  8
0
  6
HIDDEN
 62
     7
100
AcDbPoint
 10
112.459934
 20
117.042536
 30
0.0
  0
LINE
  5
5BC8
330
5663
100
AcDbEntity
  8
ASSI
100
AcDbLine
 10
117.459934
 20
138.742536
 30
0.0
 11
108.459934
 21
138.742536
 31
0.0
  0
LINE
  5
5BC9
330
5663
100
AcDbEntity
  8
ASSI
100
AcDbLine
 10
154.459934
 20
148.042536
 30
0.0
 11
154.459934
 21
130.042536
 31
0.0
  0
LINE
  5
5C1F
330
5663
100
AcDbEntity
  8
ASSI
100
AcDbLine
 10
115.859934
 20
132.642536
 30
0.0
 11
116.559934
 21
132.642536
 31
0.0
  0
LINE
  5
5C20
330
5663
100
AcDbEntity
  8
ASSI
100
AcDbLine
 10
115.759934
 20
132.942536
 30
0.0
 11
115.759934
 21
144.542536
 31
0.0
  0
LINE
  5
5C21
330
5663
100
AcDbEntity
  8
ASSI
100
AcDbLine
 10
116.759934
 20
133.864557
 30
0.0
 11
116.759934
 21
132.842536
 31
0.0
  0
ARC
  5
5C22
330
5663
100
AcDbEntity
  8
ASSI
100
AcDbCircle
 10
116.559934
 20
132.842536
 30
0.0
 40
0.1999999999999957
100
AcDbArc
 50
270.0
 51
0.0
  0
LINE
  5
5C23
330
5663
100
AcDbEntity
  8
ASSI
100
AcDbLine
 10
116.259934
 20
138.742536
 30
0.0
 11
116.259934
 21
144.242536
 31
0.0
  0
LINE
  5
5C24
330
5663
100
AcDbEntity
  8
0
  6
HIDDEN
 62
     7
370
    18
100
AcDbLine
 10
116.259934
 20
133.242536
 30
0.0
 11
116.259934
 21
138.742536
 31
0.0
  0
ARC
  5
5C32
330
5663
100
AcDbEntity
  8
ASSI
100
AcDbCircle
 10
116.259934
 20
132.942536
 30
0.0
 40
0.5
100
AcDbArc
 50
180.0
 51
270.0
  0
LINE
  5
5C33
330
5663
100
AcDbEntity
  8
ASSI
100
AcDbLine
 10
116.259934
 20
132.442536
 30
0.0
 11
116.259934
 21
145.042536
 31
0.0
  0
ARC
  5
5C34
330
5663
100
AcDbEntity
  8
ASSI
100
AcDbCircle
 10
116.259934
 20
144.542536
 30
0.0
 40
0.5
100
AcDbArc
 50
90.0
 51
180.0
  0
LINE
  5
5C35
330
5663
100
AcDbEntity
  8
ASSI
100
AcDbLine
 10
116.259934
 20
145.042536
 30
0.0
 11
116.459934
 21
145.042536
 31
0.0
  0
LINE
  5
5C36
330
5663
100
AcDbEntity
  8
ASSI
100
AcDbLine
 10
116.259934
 20
132.442536
 30
0.0
 11
117.23205
 21
132.442536
 31
0.0
  0
LINE
  5
5C37
330
5663
100
AcDbEntity
  8
ASSI
100
AcDbLine
 10
113.959934
 20
141.942536
 30
0.0
 11
113.959934
 21
135.542536
 31
0.0
  0
LINE
  5
5C39
330
5663
100
AcDbEntity
  8
ASSI
100
AcDbLine
 10
115.759934
 20
133.242536
 30
0.0
 11
116.259934
 21
133.242536
 31
0.0
  0
LINE
  5
5C3A
330
5663
100
AcDbEntity
  8
ASSI
100
AcDbLine
 10
116.259934
 20
144.242536
 30
0.0
 11
115.759934
 21
144.242536
 31
0.0
  0
LINE
  5
5C3D
330
5663
100
AcDbEntity
  8
ASSI
100
AcDbLine
 10
115.759934
 20
143.742536
 30
0.0
 11
113.959934
 21
141.942536
 31
0.0
  0
LINE
  5
5C3E
330
5663
100
AcDbEntity
  8
ASSI
100
AcDbLine
 10
113.959934
 20
135.542536
 30
0.0
 11
115.759934
 21
133.742536
 31
0.0
  0
LINE
  5
5C3F
330
5663
100
AcDbEntity
  8
ASSI
100
AcDbLine
 10
113.959934
 20
141.942536
 30
0.0
 11
112.459934
 21
141.942536
 31
0.0
  0
LINE
  5
5C40
330
5663
100
AcDbEntity
  8
ASSI
100
AcDbLine
 10
112.459934
 20
135.542536
 30
0.0
 11
113.959934
 21
135.542536
 31
0.0
  0
LINE
  5
5C45
330
5663
100
AcDbEntity
  8
ASSI
100
AcDbLine
 10
116.559934
 20
132.642536
 30
0.0
 11
116.559934
 21
134.884933
 31
0.0
  0
LINE
  5
5C46
330
5663
100
AcDbEntity
  8
ASSI
100
AcDbLine
 10
116.259934
 20
145.042536
 30
0.0
 11
116.259934
 21
144.242536
 31
0.0
  0
LINE
  5
5C47
330
5663
100
AcDbEntity
  8
ASSI
100
AcDbLine
 10
116.259934
 20
133.242536
 30
0.0
 11
116.259934
 21
132.442536
 31
0.0
  0
LINE
  5
5C48
330
5663
100
AcDbEntity
  8
ASSI
100
AcDbLine
 10
116.559934
 20
134.884933
 30
0.0
 11
116.559934
 21
132.642536
 31
0.0
  0
CIRCLE
  5
5CA4
330
5663
100
AcDbEntity
  8
ASSI
100
AcDbCircle
 10
608.174073
 20
352.795976
 30
0.0
 40
5.200000000000114
  0
CIRCLE
  5
5CA5
330
5663
100
AcDbEntity
  8
ASSI
100
AcDbCircle
 10
608.174073
 20
320.295976
 30
0.0
 40
5.200000000000131
  0
CIRCLE
  5
5CA6
330
5663
100
AcDbEntity
  8
ASSI
100
AcDbCircle
 10
608.174073
 20
287.795976
 30
0.0
 40
5.200000000000114
  0
INSERT
  5
5CA7
330
5663
100
AcDbEntity
  8
ASSI
100
AcDbBlockReference
  2
SW_CENTERMARKSYMBOL_3
 10
608.174073
 20
352.795976
 30
0.0
 41
-1.0
  0
INSERT
  5
5CA8
330
5663
100
AcDbEntity
  8
ASSI
100
AcDbBlockReference
  2
SW_CENTERMARKSYMBOL_4
 10
608.174073
 20
320.295976
 30
0.0
 41
-1.0
  0
INSERT
  5
5CA9
330
5663
100
AcDbEntity
  8
ASSI
100
AcDbBlockReference
  2
SW_CENTERMARKSYMBOL_5
 10
608.174073
 20
287.795976
 30
0.0
 41
-1.0
  0
LINE
  5
5CAA
330
5663
100
AcDbEntity
  8
ASSI
100
AcDbLine
 10
614.474073
 20
432.295976
 30
0.0
 11
599.474073
 21
432.295976
 31
0.0
  0
LINE
  5
5CAB
330
5663
100
AcDbEntity
  8
ASSI
100
AcDbLine
 10
614.474073
 20
387.295976
 30
0.0
 11
599.474073
 21
387.295976
 31
0.0
  0
LINE
  5
5CAC
330
5663
100
AcDbEntity
  8
ASSI
100
AcDbLine
 10
578.374073
 20
459.295976
 30
0.0
 11
578.374073
 21
265.502295
 31
0.0
  0
INSERT
  5
5CAD
330
5663
100
AcDbEntity
  8
0
100
AcDbBlockReference
  2
Appunti30973
 10
794.432161
 20
272.927938
 30
0.0
 41
-1.0
  0
LINE
  5
5CAE
330
5663
100
AcDbEntity
  8
ASSI
100
AcDbLine
 10
803.797959
 20
409.795976
 30
0.0
 11
704.992555
 21
409.795976
 31
0.0
  0
CIRCLE
  5
5CAF
330
5663
100
AcDbEntity
  8
0
  6
HIDDEN
 62
     1
100
AcDbCircle
 10
752.432161
 20
387.295976
 30
0.0
 40
10.0
  0
CIRCLE
  5
5CB0
330
5663
100
AcDbEntity
  8
0
  6
HIDDEN
 62
     1
100
AcDbCircle
 10
752.432161
 20
432.295976
 30
0.0
 40
9.999999999999986
  0
INSERT
  5
5CB1
330
5663
100
AcDbEntity
  8
ASSI
100
AcDbBlockReference
  2
SW_CENTERMARKSYMBOL_0
 10
752.432161
 20
387.295976
 30
0.0
 41
-1.0
  0
INSERT
  5
5CB2
330
5663
100
AcDbEntity
  8
ASSI
100
AcDbBlockReference
  2
SW_CENTERMARKSYMBOL_1
 10
752.432161
 20
387.295976
 30
0.0
 41
-1.0
  0
INSERT
  5
5CB3
330
5663
100
AcDbEntity
  8
ASSI
100
AcDbBlockReference
  2
SW_CENTERMARKSYMBOL_2
 10
752.432161
 20
432.295976
 30
0.0
 41
-1.0
  0
LINE
  5
5CB4
330
5663
100
AcDbEntity
  8
ASSI
100
AcDbLine
 10
777.432161
 20
468.728716
 30
0.0
 11
777.432161
 21
265.01965
 31
0.0
  0
INSERT
  5
5CB5
330
5663
100
AcDbEntity
  8
0
100
AcDbBlockReference
  2
Appunti31283
 10
943.192048
 20
270.743919
 30
0.0
 41
-1.0
  0
INSERT
  5
5CB6
330
5663
100
AcDbEntity
  8
0
100
AcDbBlockReference
  2
Appunti31446
 10
620.674073
 20
272.927938
 30
0.0
 41
-1.0
  0
INSERT
  5
5CB7
330
5663
100
AcDbEntity
  8
0
100
AcDbBlockReference
  2
Appunti31783
 10
794.432161
 20
94.842536
 30
0.0
 41
-1.0
  0
LINE
  5
5CB8
330
5663
100
AcDbEntity
  8
0
100
AcDbLine
 10
779.432161
 20
157.042536
 30
0.0
 11
824.432161
 21
157.042536
 31
0.0
  0
LINE
  5
5CB9
330
5663
100
AcDbEntity
  8
0
100
AcDbLine
 10
824.432161
 20
97.042536
 30
0.0
 11
794.432161
 21
97.042536
 31
0.0
  0
LINE
  5
5CBA
330
5663
100
AcDbEntity
  8
0
100
AcDbLine
 10
824.432161
 20
157.042536
 30
0.0
 11
824.432161
 21
97.042536
 31
0.0
  0
LINE
  5
5CBB
330
5663
100
AcDbEntity
  8
0
100
AcDbLine
 10
794.432161
 20
97.042536
 30
0.0
 11
794.432161
 21
147.042536
 31
0.0
  0
LINE
  5
5CBC
330
5663
100
AcDbEntity
  8
0
100
AcDbLine
 10
794.432161
 20
147.042536
 30
0.0
 11
779.432161
 21
147.042536
 31
0.0
  0
LINE
  5
5CBD
330
5663
100
AcDbEntity
  8
0
100
AcDbLine
 10
779.432161
 20
147.042536
 30
0.0
 11
779.432161
 21
157.042536
 31
0.0
  0
LINE
  5
5CBE
330
5663
100
AcDbEntity
  8
0
 62
     1
100
AcDbLine
 10
788.932161
 20
134.042536
 30
0.0
 11
788.932161
 21
144.042536
 31
0.0
  0
LINE
  5
5CBF
330
5663
100
AcDbEntity
  8
0
 62
     1
100
AcDbLine
 10
690.237774
 20
134.042536
 30
0.0
 11
788.932161
 21
134.042536
 31
0.0
  0
LINE
  5
5CC0
330
5663
100
AcDbEntity
  8
0
 62
     1
100
AcDbLine
 10
688.932161
 20
144.042536
 30
0.0
 11
788.932161
 21
144.042536
 31
0.0
  0
LINE
  5
5CC1
330
5663
100
AcDbEntity
  8
0
 62
     1
100
AcDbLine
 10
688.932161
 20
144.042536
 30
0.0
 11
690.237774
 21
140.74717
 31
0.0
  0
LINE
  5
5CC2
330
5663
100
AcDbEntity
  8
0
 62
     1
100
AcDbLine
 10
690.237774
 20
140.74717
 30
0.0
 11
689.308732
 21
137.301972
 31
0.0
  0
LINE
  5
5CC3
330
5663
100
AcDbEntity
  8
0
 62
     1
100
AcDbLine
 10
689.308732
 20
137.301972
 30
0.0
 11
690.237774
 21
134.042536
 31
0.0
  0
LINE
  5
5CC4
330
5663
100
AcDbEntity
  8
ASSI
100
AcDbLine
 10
777.432161
 20
108.942536
 30
0.0
 11
777.432161
 21
151.341529
 31
0.0
  0
LINE
  5
5CC5
330
5663
100
AcDbEntity
  8
ASSI
100
AcDbLine
 10
777.432161
 20
108.942536
 30
0.0
 11
777.432161
 21
90.513178
 31
0.0
  0
LINE
  5
5CC6
330
5663
100
AcDbEntity
  8
ASSI
100
AcDbLine
 10
777.432161
 20
108.942536
 30
0.0
 11
803.804188
 21
108.942536
 31
0.0
  0
LINE
  5
5CC7
330
5663
100
AcDbEntity
  8
ASSI
100
AcDbLine
 10
777.432161
 20
108.942536
 30
0.0
 11
760.614211
 21
108.942536
 31
0.0
  0
LINE
  5
5CC8
330
5663
100
AcDbEntity
  8
0
  6
Continuous
 62
     1
100
AcDbLine
 10
762.432161
 20
144.042536
 30
0.0
 11
762.432161
 21
134.042536
 31
0.0
  0
LINE
  5
5CC9
330
5663
100
AcDbEntity
  8
0
  6
Continuous
 62
     1
100
AcDbLine
 10
742.432161
 20
144.042536
 30
0.0
 11
742.432161
 21
134.042536
 31
0.0
  0
ARC
  5
5CCA
330
5663
100
AcDbEntity
  8
ASSI
100
AcDbCircle
 10
777.432161
 20
108.942536
 30
0.0
 40
36.93589040486231
100
AcDbArc
 50
70.032642
 51
167.710591
  0
INSERT
  5
5CCB
330
5663
100
AcDbEntity
  8
TRATTEGGIO
 62
     4
100
AcDbBlockReference
  2
*X8
 10
906.892095
 20
0.0
 30
0.0
 41
-1.0
  0
POINT
  5
5CCC
330
5663
100
AcDbEntity
  8
0
  6
HIDDEN
 62
     7
100
AcDbPoint
 10
777.432161
 20
145.878426
 30
0.0
 50
180.0
  0
POINT
  5
5CCD
330
5663
100
AcDbEntity
  8
0
  6
HIDDEN
 62
     7
100
AcDbPoint
 10
794.432161
 20
117.042536
 30
0.0
 50
180.0
  0
LINE
  5
5CCE
330
5663
100
AcDbEntity
  8
ASSI
100
AcDbLine
 10
789.432161
 20
138.742536
 30
0.0
 11
798.432161
 21
138.742536
 31
0.0
  0
LINE
  5
5CCF
330
5663
100
AcDbEntity
  8
ASSI
100
AcDbLine
 10
752.432161
 20
148.042536
 30
0.0
 11
752.432161
 21
130.042536
 31
0.0
  0
LINE
  5
5CD0
330
5663
100
AcDbEntity
  8
ASSI
100
AcDbLine
 10
791.032161
 20
132.642536
 30
0.0
 11
790.332161
 21
132.642536
 31
0.0
  0
LINE
  5
5CD1
330
5663
100
AcDbEntity
  8
ASSI
100
AcDbLine
 10
791.132161
 20
132.942536
 30
0.0
 11
791.132161
 21
144.542536
 31
0.0
  0
LINE
  5
5CD2
330
5663
100
AcDbEntity
  8
ASSI
100
AcDbLine
 10
790.132161
 20
133.864557
 30
0.0
 11
790.132161
 21
132.842536
 31
0.0
  0
ARC
  5
5CD3
330
5663
100
AcDbEntity
  8
ASSI
100
AcDbCircle
 10
790.332161
 20
132.842536
 30
0.0
 40
0.1999999999999957
100
AcDbArc
 50
180.0
 51
270.0
  0
LINE
  5
5CD4
330
5663
100
AcDbEntity
  8
ASSI
100
AcDbLine
 10
790.632161
 20
138.742536
 30
0.0
 11
790.632161
 21
144.242536
 31
0.0
  0
LINE
  5
5CD5
330
5663
100
AcDbEntity
  8
0
  6
HIDDEN
 62
     7
370
    18
100
AcDbLine
 10
790.632161
 20
133.242536
 30
0.0
 11
790.632161
 21
138.742536
 31
0.0
  0
ARC
  5
5CD6
330
5663
100
AcDbEntity
  8
ASSI
100
AcDbCircle
 10
790.632161
 20
132.942536
 30
0.0
 40
0.5
100
AcDbArc
 50
270.0
 51
0.0
  0
LINE
  5
5CD7
330
5663
100
AcDbEntity
  8
ASSI
100
AcDbLine
 10
790.632161
 20
132.442536
 30
0.0
 11
790.632161
 21
145.042536
 31
0.0
  0
ARC
  5
5CD8
330
5663
100
AcDbEntity
  8
ASSI
100
AcDbCircle
 10
790.632161
 20
144.542536
 30
0.0
 40
0.5
100
AcDbArc
 50
0.0
 51
90.0
  0
LINE
  5
5CD9
330
5663
100
AcDbEntity
  8
ASSI
100
AcDbLine
 10
790.632161
 20
145.042536
 30
0.0
 11
790.432161
 21
145.042536
 31
0.0
  0
LINE
  5
5CDA
330
5663
100
AcDbEntity
  8
ASSI
100
AcDbLine
 10
790.632161
 20
132.442536
 30
0.0
 11
789.660046
 21
132.442536
 31
0.0
  0
LINE
  5
5CDB
330
5663
100
AcDbEntity
  8
ASSI
100
AcDbLine
 10
792.932161
 20
141.942536
 30
0.0
 11
792.932161
 21
135.542536
 31
0.0
  0
LINE
  5
5CDC
330
5663
100
AcDbEntity
  8
ASSI
100
AcDbLine
 10
791.132161
 20
133.242536
 30
0.0
 11
790.632161
 21
133.242536
 31
0.0
  0
LINE
  5
5CDD
330
5663
100
AcDbEntity
  8
ASSI
100
AcDbLine
 10
790.632161
 20
144.242536
 30
0.0
 11
791.132161
 21
144.242536
 31
0.0
  0
LINE
  5
5CDE
330
5663
100
AcDbEntity
  8
ASSI
100
AcDbLine
 10
791.132161
 20
143.742536
 30
0.0
 11
792.932161
 21
141.942536
 31
0.0
  0
LINE
  5
5CDF
330
5663
100
AcDbEntity
  8
ASSI
100
AcDbLine
 10
792.932161
 20
135.542536
 30
0.0
 11
791.132161
 21
133.742536
 31
0.0
  0
LINE
  5
5CE0
330
5663
100
AcDbEntity
  8
ASSI
100
AcDbLine
 10
792.932161
 20
141.942536
 30
0.0
 11
794.432161
 21
141.942536
 31
0.0
  0
LINE
  5
5CE1
330
5663
100
AcDbEntity
  8
ASSI
100
AcDbLine
 10
794.432161
 20
135.542536
 30
0.0
 11
792.932161
 21
135.542536
 31
0.0
  0
LINE
  5
5CE2
330
5663
100
AcDbEntity
  8
ASSI
100
AcDbLine
 10
790.332161
 20
132.642536
 30
0.0
 11
790.332161
 21
134.884933
 31
0.0
  0
LINE
  5
5CE3
330
5663
100
AcDbEntity
  8
ASSI
100
AcDbLine
 10
790.632161
 20
145.042536
 30
0.0
 11
790.632161
 21
144.242536
 31
0.0
  0
LINE
  5
5CE4
330
5663
100
AcDbEntity
  8
ASSI
100
AcDbLine
 10
790.632161
 20
133.242536
 30
0.0
 11
790.632161
 21
132.442536
 31
0.0
  0
LINE
  5
5CE5
330
5663
100
AcDbEntity
  8
ASSI
100
AcDbLine
 10
790.332161
 20
134.884933
 30
0.0
 11
790.332161
 21
132.642536
 31
0.0
  0
ENDSEC
  0
SECTION
  2
OBJECTS
  0
DICTIONARY
  5
5653
330
0
100
AcDbDictionary
281
     1
  3
ACAD_DETAILVIEWSTYLE
350
6288
  3
ACAD_GROUP
350
5654
  3
ACAD_IMAGE_DICT
350
5C49
  3
ACAD_LAYOUT
350
5660
  3
ACAD_MATERIAL
350
566E
  3
ACAD_MLEADERSTYLE
350
56FE
  3
ACAD_MLINESTYLE
350
565D
  3
ACAD_PLOTSETTINGS
350
565F
  3
ACAD_PLOTSTYLENAME
350
5655
  3
ACAD_SCALELIST
350
56B1
  3
ACAD_SECTIONVIEWSTYLE
350
6289
  3
ACAD_TABLESTYLE
350
56F2
  3
ACAD_VISUALSTYLE
350
56D3
  3
ACDB_RECOMPOSE_DATA
350
6287
  3
AcDbVariableDictionary
350
5778
  3
HOST_DOC_SETTINGS
350
56F4
  3
MCS_STREAM_DICT
350
56EE
  0
SUN
  5
56F1
330
5666
100
AcDbSun
 90
        1
290
     0
 63
     7
 40
1.0
291
     1
 91
  2455826
 92
 54000000
292
     0
 70
     2
 71
   256
280
     1
  0
DICTIONARY
  5
57DB
330
5663
100
AcDbDictionary
280
     1
281
     1
  3
ACAD_SORTENTS
360
57DC
  0
DICTIONARY
  5
579E
330
577D
100
AcDbDictionary
280
     1
281
     1
  3
ACAD_SORTENTS
360
579F
  0
DICTIONARY
  5
59CF
330
59AE
100
AcDbDictionary
280
     1
281
     1
  3
ACAD_SORTENTS
360
59D0
  0
DICTIONARY
  5
5A98
330
5A77
100
AcDbDictionary
280
     1
281
     1
  3
ACAD_SORTENTS
360
5A99
  0
DICTIONARY
  5
5B36
330
5B15
100
AcDbDictionary
280
     1
281
     1
  3
ACAD_SORTENTS
360
5B37
  0
DICTIONARY
  5
6288
102
{ACAD_REACTORS
330
5653
102
}
330
5653
100
AcDbDictionary
281
     1
  0
DICTIONARY
  5
5654
102
{ACAD_REACTORS
330
5653
102
}
330
5653
100
AcDbDictionary
281
     1
  0
DICTIONARY
  5
5C49
102
{ACAD_REACTORS
330
5653
102
}
330
5653
100
AcDbDictionary
281
     1
  0
DICTIONARY
  5
5660
102
{ACAD_REACTORS
330
5653
102
}
330
5653
100
AcDbDictionary
281
     1
  3
Layout1
350
5662
  3
Model
350
5664
  0
DICTIONARY
  5
566E
102
{ACAD_REACTORS
330
5653
102
}
330
5653
100
AcDbDictionary
281
     1
  3
ByBlock
350
5670
  3
ByLayer
350
566F
  3
Global
350
5671
  0
DICTIONARY
  5
56FE
102
{ACAD_REACTORS
330
5653
102
}
330
5653
100
AcDbDictionary
281
     1
  0
DICTIONARY
  5
565D
102
{ACAD_REACTORS
330
5653
102
}
330
5653
100
AcDbDictionary
281
     1
  3
Standard
350
565E
  0
DICTIONARY
  5
565F
102
{ACAD_REACTORS
330
5653
102
}
330
5653
100
AcDbDictionary
281
     1
  0
ACDBDICTIONARYWDFLT
  5
5655
102
{ACAD_REACTORS
330
5653
102
}
330
5653
100
AcDbDictionary
281
     1
  3
Normal
350
5656
100
AcDbDictionaryWithDefault
340
5656
  0
DICTIONARY
  5
56B1
102
{ACAD_REACTORS
330
5653
102
}
330
5653
100
AcDbDictionary
281
     1
  3
A0
350
56B2
  3
A1
350
56B3
  3
A2
350
56B4
  3
A3
350
56B5
  3
A4
350
56B6
  3
A5
350
56B7
  3
A6
350
56B8
  3
A7
350
56B9
  3
A8
350
56BA
  3
A9
350
56BB
  3
B0
350
56BC
  3
B1
350
56BD
  3
B2
350
56BE
  3
B3
350
56BF
  3
B4
350
56C0
  3
B5
350
56C1
  3
B6
350
56C2
  3
B7
350
56C3
  3
B8
350
56C4
  3
B9
350
56C5
  3
C0
350
56C6
  3
C1
350
56C7
  3
C2
350
56C8
  3
C3
350
56C9
  3
C4
350
56CA
  3
C5
350
56CB
  3
C6
350
56CC
  3
C7
350
56CD
  3
C8
350
56CE
  3
C9
350
56CF
  3
D0
350
56D0
  3
D1
350
56D1
  3
D2
350
56D2
  0
DICTIONARY
  5
6289
102
{ACAD_REACTORS
330
5653
102
}
330
5653
100
AcDbDictionary
281
     1
  0
DICTIONARY
  5
56F2
102
{ACAD_REACTORS
330
5653
102
}
330
5653
100
AcDbDictionary
281
     1
  3
Standard
350
56F3
  0
DICTIONARY
  5
56D3
102
{ACAD_REACTORS
330
5653
102
}
330
5653
100
AcDbDictionary
281
     1
  3
2dWireframe
350
56D8
  3
Basic
350
56DB
  3
Brighten
350
56DF
  3
ColorChange
350
56E3
  3
Conceptual
350
56DD
  3
Dim
350
56DE
  3
EdgeColorOff
350
56E6
  3
Facepattern
350
56E2
  3
Flat
350
56D4
  3
FlatWithEdges
350
56D5
  3
Gouraud
350
56D6
  3
GouraudWithEdges
350
56D7
  3
Hidden
350
56DA
  3
JitterOff
350
56E4
  3
Linepattern
350
56E1
  3
OverhangOff
350
56E5
  3
Realistic
350
56DC
  3
Shaded
350
56EB
  3
Shaded with edges
350
56EA
  3
Shades of Gray
350
56E7
  3
Sketchy
350
56E8
  3
Thicken
350
56E0
  3
Wireframe
350
56D9
  3
X-Ray
350
56E9
  0
XRECORD
  5
6287
102
{ACAD_REACTORS
330
5653
102
}
330
5653
100
AcDbXrecord
280
     1
 90
        1
330
56F3
  0
DICTIONARY
  5
5778
102
{ACAD_REACTORS
330
5653
102
}
330
5653
100
AcDbDictionary
281
     1
  3
CANNOSCALE
350
6284
  3
DIMASSOC
350
5C6B
  3
HIDETEXT
350
5C6C
  3
MSLTSCALE
350
577A
  0
DICTIONARY
  5
56F4
102
{ACAD_REACTORS
330
5653
102
}
330
5653
100
AcDbDictionary
281
     1
  3
NCDocParameters
350
56F5
  0
DICTIONARY
  5
56EE
102
{ACAD_REACTORS
330
5653
102
}
330
5653
100
AcDbDictionary
281
     1
  3
MC_VERSION_DATA
350
5776
  3
MCS_DOCUMENT_ID
350
56EF
  3
MCS_PARAMS_DATA
350
5774
  0
SORTENTSTABLE
  5
57DC
102
{ACAD_REACTORS
330
57DB
102
}
330
57DB
100
AcDbSortentsTable
330
5663
  0
SORTENTSTABLE
  5
579F
102
{ACAD_REACTORS
330
579E
330
579E
102
}
330
579E
100
AcDbSortentsTable
330
577D
  0
SORTENTSTABLE
  5
59D0
102
{ACAD_REACTORS
330
59CF
330
59CF
102
}
330
59CF
100
AcDbSortentsTable
330
59AE
  0
SORTENTSTABLE
  5
5A99
102
{ACAD_REACTORS
330
5A98
330
5A98
102
}
330
5A98
100
AcDbSortentsTable
330
5A77
  0
SORTENTSTABLE
  5
5B37
102
{ACAD_REACTORS
330
5B36
330
5B36
102
}
330
5B36
100
AcDbSortentsTable
330
5B15
  0
LAYOUT
  5
5662
102
{ACAD_REACTORS
330
5660
102
}
330
5660
100
AcDbPlotSettings
  1

  2
none_device
  4

  6

 40
0.0
 41
0.0
 42
0.0
 43
0.0
 44
0.0
 45
0.0
 46
0.0
 47
0.0
 48
0.0
 49
0.0
140
0.0
141
0.0
142
1.0
143
1.0
 70
   688
 72
     0
 73
     0
 74
     5
  7

 75
    16
 76
     0
 77
     2
 78
   300
147
1.0
148
0.0
149
0.0
100
AcDbLayout
  1
Layout1
 70
     0
 71
     1
 10
0.0
 20
0.0
 11
0.0
 21
0.0
 12
0.0
 22
0.0
 32
0.0
 14
1.000000E+20
 24
1.000000E+20
 34
1.000000E+20
 15
-1.000000E+20
 25
-1.000000E+20
 35
-1.000000E+20
146
0.0
 13
0.0
 23
0.0
 33
0.0
 16
1.0
 26
0.0
 36
0.0
 17
0.0
 27
1.0
 37
0.0
 76
     0
330
5661
  0
LAYOUT
  5
5664
102
{ACAD_REACTORS
330
5660
102
}
330
5660
100
AcDbPlotSettings
  1

  2
none_device
  4
Letter_(8.50_x_11.00_Inches)
  6

 40
6.35
 41
6.35
 42
6.350005
 43
6.350005
 44
215.9
 45
279.4
 46
0.0
 47
0.0
 48
0.0
 49
0.0
140
0.0
141
0.0
142
1.0
143
1.0
 70
  1712
 72
     0
 73
     0
 74
     0
  7

 75
     0
 76
     0
 77
     2
 78
   300
147
1.0
148
0.0
149
0.0
100
AcDbLayout
  1
Model
 70
     1
 71
     0
 10
0.0
 20
0.0
 11
12.0
 21
9.0
 12
0.0
 22
0.0
 32
0.0
 14
-59.696437
 24
-56.586697
 34
0.0
 15
966.588533
 25
606.550696
 35
0.0
146
0.0
 13
0.0
 23
0.0
 33
0.0
 16
1.0
 26
0.0
 36
0.0
 17
0.0
 27
1.0
 37
0.0
 76
     0
330
5663
331
5666
  0
MATERIAL
  5
5670
102
{ACAD_REACTORS
330
566E
102
}
330
566E
100
AcDbMaterial
  1
ByBlock
 72
     1
 94
      127
  0
MATERIAL
  5
566F
102
{ACAD_REACTORS
330
566E
102
}
330
566E
100
AcDbMaterial
  1
ByLayer
 72
     1
 94
      127
  0
MATERIAL
  5
5671
102
{ACAD_REACTORS
330
566E
102
}
330
566E
100
AcDbMaterial
  1
Global
 72
     1
 94
      127
  0
MLINESTYLE
  5
565E
102
{ACAD_REACTORS
330
565D
102
}
330
565D
100
AcDbMlineStyle
  2
Standard
 70
     0
  3

 62
   256
 51
90.0
 52
90.0
 71
     2
 49
0.5
 62
   256
  6
BYLAYER
 49
-0.5
 62
   256
  6
BYLAYER
  0
ACDBPLACEHOLDER
  5
5656
102
{ACAD_REACTORS
330
5655
102
}
330
5655
  0
SCALE
  5
56B2
102
{ACAD_REACTORS
330
56B1
102
}
330
56B1
100
AcDbScale
 70
     0
300
1:1
140
1.0
141
1.0
290
     1
  0
SCALE
  5
56B3
102
{ACAD_REACTORS
330
56B1
102
}
330
56B1
100
AcDbScale
 70
     0
300
1:2
140
1.0
141
2.0
290
     0
  0
SCALE
  5
56B4
102
{ACAD_REACTORS
330
56B1
102
}
330
56B1
100
AcDbScale
 70
     0
300
1:4
140
1.0
141
4.0
290
     0
  0
SCALE
  5
56B5
102
{ACAD_REACTORS
330
56B1
102
}
330
56B1
100
AcDbScale
 70
     0
300
1:5
140
1.0
141
5.0
290
     0
  0
SCALE
  5
56B6
102
{ACAD_REACTORS
330
56B1
102
}
330
56B1
100
AcDbScale
 70
     0
300
1:8
140
1.0
141
8.0
290
     0
  0
SCALE
  5
56B7
102
{ACAD_REACTORS
330
56B1
102
}
330
56B1
100
AcDbScale
 70
     0
300
1:10
140
1.0
141
10.0
290
     0
  0
SCALE
  5
56B8
102
{ACAD_REACTORS
330
56B1
102
}
330
56B1
100
AcDbScale
 70
     0
300
1:16
140
1.0
141
16.0
290
     0
  0
SCALE
  5
56B9
102
{ACAD_REACTORS
330
56B1
102
}
330
56B1
100
AcDbScale
 70
     0
300
1:20
140
1.0
141
20.0
290
     0
  0
SCALE
  5
56BA
102
{ACAD_REACTORS
330
56B1
102
}
330
56B1
100
AcDbScale
 70
     0
300
1:30
140
1.0
141
30.0
290
     0
  0
SCALE
  5
56BB
102
{ACAD_REACTORS
330
56B1
102
}
330
56B1
100
AcDbScale
 70
     0
300
1:40
140
1.0
141
40.0
290
     0
  0
SCALE
  5
56BC
102
{ACAD_REACTORS
330
56B1
102
}
330
56B1
100
AcDbScale
 70
     0
300
1:50
140
1.0
141
50.0
290
     0
  0
SCALE
  5
56BD
102
{ACAD_REACTORS
330
56B1
102
}
330
56B1
100
AcDbScale
 70
     0
300
1:100
140
1.0
141
100.0
290
     0
  0
SCALE
  5
56BE
102
{ACAD_REACTORS
330
56B1
102
}
330
56B1
100
AcDbScale
 70
     0
300
2:1
140
2.0
141
1.0
290
     0
  0
SCALE
  5
56BF
102
{ACAD_REACTORS
330
56B1
102
}
330
56B1
100
AcDbScale
 70
     0
300
4:1
140
4.0
141
1.0
290
     0
  0
SCALE
  5
56C0
102
{ACAD_REACTORS
330
56B1
102
}
330
56B1
100
AcDbScale
 70
     0
300
8:1
140
8.0
141
1.0
290
     0
  0
SCALE
  5
56C1
102
{ACAD_REACTORS
330
56B1
102
}
330
56B1
100
AcDbScale
 70
     0
300
10:1
140
10.0
141
1.0
290
     0
  0
SCALE
  5
56C2
102
{ACAD_REACTORS
330
56B1
102
}
330
56B1
100
AcDbScale
 70
     0
300
100:1
140
100.0
141
1.0
290
     0
  0
SCALE
  5
56C3
102
{ACAD_REACTORS
330
56B1
102
}
330
56B1
100
AcDbScale
 70
     0
300
1/128" = 1'-0"
140
0.007812
141
12.0
290
     0
  0
SCALE
  5
56C4
102
{ACAD_REACTORS
330
56B1
102
}
330
56B1
100
AcDbScale
 70
     0
300
1/64" = 1'-0"
140
0.015625
141
12.0
290
     0
  0
SCALE
  5
56C5
102
{ACAD_REACTORS
330
56B1
102
}
330
56B1
100
AcDbScale
 70
     0
300
1/32" = 1'-0"
140
0.03125
141
12.0
290
     0
  0
SCALE
  5
56C6
102
{ACAD_REACTORS
330
56B1
102
}
330
56B1
100
AcDbScale
 70
     0
300
1/16" = 1'-0"
140
0.0625
141
12.0
290
     0
  0
SCALE
  5
56C7
102
{ACAD_REACTORS
330
56B1
102
}
330
56B1
100
AcDbScale
 70
     0
300
3/32" = 1'-0"
140
0.09375
141
12.0
290
     0
  0
SCALE
  5
56C8
102
{ACAD_REACTORS
330
56B1
102
}
330
56B1
100
AcDbScale
 70
     0
300
1/8" = 1'-0"
140
0.125
141
12.0
290
     0
  0
SCALE
  5
56C9
102
{ACAD_REACTORS
330
56B1
102
}
330
56B1
100
AcDbScale
 70
     0
300
3/16" = 1'-0"
140
0.1875
141
12.0
290
     0
  0
SCALE
  5
56CA
102
{ACAD_REACTORS
330
56B1
102
}
330
56B1
100
AcDbScale
 70
     0
300
1/4" = 1'-0"
140
0.25
141
12.0
290
     0
  0
SCALE
  5
56CB
102
{ACAD_REACTORS
330
56B1
102
}
330
56B1
100
AcDbScale
 70
     0
300
3/8" = 1'-0"
140
0.375
141
12.0
290
     0
  0
SCALE
  5
56CC
102
{ACAD_REACTORS
330
56B1
102
}
330
56B1
100
AcDbScale
 70
     0
300
1/2" = 1'-0"
140
0.5
141
12.0
290
     0
  0
SCALE
  5
56CD
102
{ACAD_REACTORS
330
56B1
102
}
330
56B1
100
AcDbScale
 70
     0
300
3/4" = 1'-0"
140
0.75
141
12.0
290
     0
  0
SCALE
  5
56CE
102
{ACAD_REACTORS
330
56B1
102
}
330
56B1
100
AcDbScale
 70
     0
300
1" = 1'-0"
140
1.0
141
12.0
290
     0
  0
SCALE
  5
56CF
102
{ACAD_REACTORS
330
56B1
102
}
330
56B1
100
AcDbScale
 70
     0
300
1-1/2" = 1'-0"
140
1.5
141
12.0
290
     0
  0
SCALE
  5
56D0
102
{ACAD_REACTORS
330
56B1
102
}
330
56B1
100
AcDbScale
 70
     0
300
3" = 1'-0"
140
3.0
141
12.0
290
     0
  0
SCALE
  5
56D1
102
{ACAD_REACTORS
330
56B1
102
}
330
56B1
100
AcDbScale
 70
     0
300
6" = 1'-0"
140
6.0
141
12.0
290
     0
  0
SCALE
  5
56D2
102
{ACAD_REACTORS
330
56B1
102
}
330
56B1
100
AcDbScale
 70
     0
300
1'-0" = 1'-0"
140
12.0
141
12.0
290
     0
  0
TABLESTYLE
  5
56F3
102
{ACAD_REACTORS
330
56F2
102
}
102
{ACAD_XDICTIONARY
360
6285
102
}
330
56F2
100
AcDbTableStyle
  3
Standard
 70
     0
 71
     8
 40
1.5
 41
1.5
280
     0
281
     0
  7
STANDARD
140
4.5
170
     2
 62
     0
 63
   257
283
     0
 90
        4
 91
        0
  1

274
    -2
284
     1
 64
     0
275
    -2
285
     1
 65
     0
276
    -2
286
     1
 66
     0
277
    -2
287
     1
 67
     0
278
    -2
288
     1
 68
     0
279
    -2
289
     1
 69
     0
  7
STANDARD
140
6.0
170
     5
 62
     0
 63
   257
283
     0
 90
        4
 91
        0
  1

274
    -2
284
     1
 64
     0
275
    -2
285
     1
 65
     0
276
    -2
286
     1
 66
     0
277
    -2
287
     1
 67
     0
278
    -2
288
     1
 68
     0
279
    -2
289
     1
 69
     0
  7
STANDARD
140
4.5
170
     5
 62
     0
 63
   257
283
     0
 90
        4
 91
        0
  1

274
    -2
284
     1
 64
     0
275
    -2
285
     1
 65
     0
276
    -2
286
     1
 66
     0
277
    -2
287
     1
 67
     0
278
    -2
288
     1
 68
     0
279
    -2
289
     1
 69
     0
  0
VISUALSTYLE
  5
56D8
102
{ACAD_REACTORS
330
56D3
102
}
330
56D3
100
AcDbVisualStyle
  2
2dWireframe
 70
     4
177
     3
291
     0
 70
    58
 90
        0
176
     1
 90
        2
176
     1
 90
        0
176
     1
 90
        0
176
     1
 40
0.6
176
     1
 40
30.0
176
     1
 62
     7
176
     1
 90
        1
176
     1
 90
        4
176
     1
 62
     7
176
     1
 62
   257
176
     1
 90
        1
176
     1
 90
        1
176
     1
 40
1.0
176
     1
 90
        0
176
     1
 62
   257
176
     1
 40
1.0
176
     1
 90
        1
176
     1
 90
        6
176
     1
 90
        2
176
     1
 62
     7
176
     1
 90
        5
176
     1
 90
        0
176
     1
 90
        0
176
     1
290
     0
176
     1
 90
        1
176
     1
 40
0.0
176
     1
 90
        0
176
     1
290
     1
176
     1
290
     1
176
     1
290
     0
176
     1
290
     0
176
     1
290
     0
176
     1
290
     0
176
     1
290
     0
176
     1
290
     0
176
     1
290
     0
176
     1
 90
       50
176
     1
 40
0.0
176
     1
 40
1.0
176
     1
 90
        0
176
     1
 62
    18
420
        0
176
     1
 90
       50
176
     1
 90
        3
176
     1
 62
     5
420
      255
176
     1
290
     0
176
     1
 90
       50
176
     1
 90
       50
176
     1
 90
       50
176
     1
290
     0
176
     1
 90
       50
176
     1
 62
   256
176
     0
 40
1.0
176
     0
 90
        2
176
     1
  1
strokes_ogs.tif
176
     1
290
     0
176
     1
 40
1.0
176
     1
 40
1.0
176
     1
  0
VISUALSTYLE
  5
56DB
102
{ACAD_REACTORS
330
56D3
102
}
330
56D3
100
AcDbVisualStyle
  2
Basic
 70
     7
177
     3
291
     1
 70
    58
 90
        1
176
     1
 90
        0
176
     1
 90
        1
176
     1
 90
        0
176
     1
 40
0.6
176
     1
 40
30.0
176
     1
 62
     7
176
     1
 90
        0
176
     1
 90
        4
176
     1
 62
     7
176
     1
 62
   257
176
     1
 90
        1
176
     1
 90
        1
176
     1
 40
1.0
176
     1
 90
        8
176
     1
 62
     7
176
     1
 40
1.0
176
     1
 90
        1
176
     1
 90
        6
176
     1
 90
        2
176
     1
 62
     7
176
     1
 90
        5
176
     1
 90
        0
176
     1
 90
        0
176
     1
290
     0
176
     1
 90
        1
176
     1
 40
0.0
176
     1
 90
        0
176
     1
290
     0
176
     1
290
     1
176
     1
290
     1
176
     1
290
     0
176
     1
290
     0
176
     1
290
     0
176
     1
290
     0
176
     1
290
     0
176
     1
290
     0
176
     1
 90
       50
176
     1
 40
0.0
176
     1
 40
1.0
176
     1
 90
        0
176
     1
 62
    18
420
        0
176
     1
 90
       50
176
     1
 90
        3
176
     1
 62
     5
420
      255
176
     1
290
     0
176
     1
 90
       50
176
     1
 90
       50
176
     1
 90
       50
176
     1
290
     0
176
     1
 90
       50
176
     1
 62
   256
176
     0
 40
1.0
176
     0
 90
        2
176
     1
  1
strokes_ogs.tif
176
     1
290
     0
176
     1
 40
1.0
176
     1
 40
1.0
176
     1
  0
VISUALSTYLE
  5
56DF
102
{ACAD_REACTORS
330
56D3
102
}
330
56D3
100
AcDbVisualStyle
  2
Brighten
 70
    12
177
     3
291
     1
 70
    58
 90
        2
176
     1
 90
        2
176
     1
 90
        0
176
     1
 90
        0
176
     1
 40
0.6
176
     1
 40
30.0
176
     1
 62
     7
176
     1
 90
        1
176
     1
 90
        4
176
     1
 62
     7
176
     1
 62
   257
176
     1
 90
        1
176
     1
 90
        1
176
     1
 40
1.0
176
     1
 90
        8
176
     1
 62
     7
176
     1
 40
1.0
176
     1
 90
        1
176
     1
 90
        6
176
     1
 90
        2
176
     1
 62
     7
176
     1
 90
        5
176
     1
 90
        0
176
     1
 90
        0
176
     1
290
     0
176
     1
 90
        1
176
     1
 40
50.0
176
     1
 90
        0
176
     1
290
     0
176
     1
290
     1
176
     1
290
     1
176
     1
290
     0
176
     1
290
     0
176
     1
290
     0
176
     1
290
     0
176
     1
290
     0
176
     1
290
     0
176
     1
 90
       50
176
     1
 40
0.0
176
     1
 40
1.0
176
     1
 90
        0
176
     1
 62
    18
420
        0
176
     1
 90
       50
176
     1
 90
        3
176
     1
 62
     5
420
      255
176
     1
290
     0
176
     1
 90
       50
176
     1
 90
       50
176
     1
 90
       50
176
     1
290
     0
176
     1
 90
       50
176
     1
 62
   256
176
     0
 40
1.0
176
     0
 90
        2
176
     1
  1
strokes_ogs.tif
176
     1
290
     0
176
     1
 40
1.0
176
     1
 40
1.0
176
     1
  0
VISUALSTYLE
  5
56E3
102
{ACAD_REACTORS
330
56D3
102
}
330
56D3
100
AcDbVisualStyle
  2
ColorChange
 70
    16
177
     3
291
     1
 70
    58
 90
        2
176
     1
 90
        2
176
     1
 90
        3
176
     1
 90
        0
176
     1
 40
0.6
176
     1
 40
30.0
176
     1
 62
     8
176
     1
 90
        1
176
     1
 90
        4
176
     1
 62
     7
176
     1
 62
   257
176
     1
 90
        1
176
     1
 90
        1
176
     1
 40
1.0
176
     1
 90
        8
176
     1
 62
     8
176
     1
 40
1.0
176
     1
 90
        1
176
     1
 90
        6
176
     1
 90
        2
176
     1
 62
     7
176
     1
 90
        5
176
     1
 90
        0
176
     1
 90
        0
176
     1
290
     0
176
     1
 90
        1
176
     1
 40
0.0
176
     1
 90
        0
176
     1
290
     0
176
     1
290
     1
176
     1
290
     1
176
     1
290
     0
176
     1
290
     0
176
     1
290
     0
176
     1
290
     0
176
     1
290
     0
176
     1
290
     0
176
     1
 90
       50
176
     1
 40
0.0
176
     1
 40
1.0
176
     1
 90
        0
176
     1
 62
    18
420
        0
176
     1
 90
       50
176
     1
 90
        3
176
     1
 62
     5
420
      255
176
     1
290
     0
176
     1
 90
       50
176
     1
 90
       50
176
     1
 90
       50
176
     1
290
     0
176
     1
 90
       50
176
     1
 62
   256
176
     0
 40
1.0
176
     0
 90
        2
176
     1
  1
strokes_ogs.tif
176
     1
290
     0
176
     1
 40
1.0
176
     1
 40
1.0
176
     1
  0
VISUALSTYLE
  5
56DD
102
{ACAD_REACTORS
330
56D3
102
}
330
56D3
100
AcDbVisualStyle
  2
Conceptual
 70
     9
177
     3
291
     0
 70
    58
 90
        3
176
     1
 90
        2
176
     1
 90
        0
176
     1
 90
        0
176
     1
 40
0.6
176
     1
 40
30.0
176
     1
 62
     7
176
     1
 90
        2
176
     1
 90
        2
176
     1
 62
     7
176
     1
 62
   257
176
     1
 90
        1
176
     1
 90
        1
176
     1
 40
179.0
176
     1
 90
        8
176
     1
 62
     7
176
     1
 40
1.0
176
     1
 90
        1
176
     1
 90
        6
176
     1
 90
        2
176
     1
 62
     7
176
     1
 90
        3
176
     1
 90
        0
176
     1
 90
        0
176
     1
290
     0
176
     1
 90
        1
176
     1
 40
0.0
176
     1
 90
        0
176
     1
290
     0
176
     1
290
     1
176
     1
290
     1
176
     1
290
     0
176
     1
290
     0
176
     1
290
     0
176
     1
290
     0
176
     1
290
     0
176
     1
290
     0
176
     1
 90
       50
176
     1
 40
0.0
176
     1
 40
1.0
176
     1
 90
        0
176
     1
 62
    18
420
        0
176
     1
 90
       50
176
     1
 90
        3
176
     1
 62
     5
420
      255
176
     1
290
     0
176
     1
 90
       50
176
     1
 90
       50
176
     1
 90
       50
176
     1
290
     0
176
     1
 90
       50
176
     1
 62
   256
176
     0
 40
1.0
176
     0
 90
        2
176
     1
  1
strokes_ogs.tif
176
     1
290
     0
176
     1
 40
1.0
176
     1
 40
1.0
176
     1
  0
VISUALSTYLE
  5
56DE
102
{ACAD_REACTORS
330
56D3
102
}
330
56D3
100
AcDbVisualStyle
  2
Dim
 70
    11
177
     3
291
     1
 70
    58
 90
        2
176
     1
 90
        2
176
     1
 90
        0
176
     1
 90
        0
176
     1
 40
0.6
176
     1
 40
30.0
176
     1
 62
     7
176
     1
 90
        1
176
     1
 90
        4
176
     1
 62
     7
176
     1
 62
   257
176
     1
 90
        1
176
     1
 90
        1
176
     1
 40
1.0
176
     1
 90
        8
176
     1
 62
     7
176
     1
 40
1.0
176
     1
 90
        1
176
     1
 90
        6
176
     1
 90
        2
176
     1
 62
     7
176
     1
 90
        5
176
     1
 90
        0
176
     1
 90
        0
176
     1
290
     0
176
     1
 90
        1
176
     1
 40
-50.0
176
     1
 90
        0
176
     1
290
     0
176
     1
290
     1
176
     1
290
     1
176
     1
290
     0
176
     1
290
     0
176
     1
290
     0
176
     1
290
     0
176
     1
290
     0
176
     1
290
     0
176
     1
 90
       50
176
     1
 40
0.0
176
     1
 40
1.0
176
     1
 90
        0
176
     1
 62
    18
420
        0
176
     1
 90
       50
176
     1
 90
        3
176
     1
 62
     5
420
      255
176
     1
290
     0
176
     1
 90
       50
176
     1
 90
       50
176
     1
 90
       50
176
     1
290
     0
176
     1
 90
       50
176
     1
 62
   256
176
     0
 40
1.0
176
     0
 90
        2
176
     1
  1
strokes_ogs.tif
176
     1
290
     0
176
     1
 40
1.0
176
     1
 40
1.0
176
     1
  0
VISUALSTYLE
  5
56E6
102
{ACAD_REACTORS
330
56D3
102
}
330
56D3
100
AcDbVisualStyle
  2
EdgeColorOff
 70
    22
177
     3
291
     1
 70
    58
 90
        2
176
     1
 90
        2
176
     1
 90
        0
176
     1
 90
        0
176
     1
 40
0.6
176
     1
 40
30.0
176
     1
 62
     7
176
     1
 90
        1
176
     1
 90
        4
176
     1
 62
     7
176
     1
 62
   257
176
     1
 90
        1
176
     1
 90
        1
176
     1
 40
1.0
176
     1
 90
        8
176
     1
 62
     7
176
     1
 40
1.0
176
     1
 90
        1
176
     1
 90
        6
176
     1
 90
        2
176
     1
 62
     7
176
     1
 90
        5
176
     1
 90
        0
176
     1
 90
        0
176
     1
290
     0
176
     1
 90
        1
176
     1
 40
0.0
176
     1
 90
        0
176
     1
290
     0
176
     1
290
     1
176
     1
290
     1
176
     1
290
     0
176
     1
290
     0
176
     1
290
     0
176
     1
290
     0
176
     1
290
     0
176
     1
290
     0
176
     1
 90
       50
176
     1
 40
0.0
176
     1
 40
1.0
176
     1
 90
        0
176
     1
 62
    18
420
        0
176
     1
 90
       50
176
     1
 90
        3
176
     1
 62
     5
420
      255
176
     1
290
     0
176
     1
 90
       50
176
     1
 90
       50
176
     1
 90
       50
176
     1
290
     0
176
     1
 90
       50
176
     1
 62
   256
176
     0
 40
1.0
176
     0
 90
        2
176
     1
  1
strokes_ogs.tif
176
     1
290
     0
176
     1
 40
1.0
176
     1
 40
1.0
176
     1
  0
VISUALSTYLE
  5
56E2
102
{ACAD_REACTORS
330
56D3
102
}
330
56D3
100
AcDbVisualStyle
  2
Facepattern
 70
    15
177
     3
291
     1
 70
    58
 90
        2
176
     1
 90
        2
176
     1
 90
        0
176
     1
 90
        0
176
     1
 40
0.6
176
     1
 40
30.0
176
     1
 62
     7
176
     1
 90
        1
176
     1
 90
        4
176
     1
 62
     7
176
     1
 62
   257
176
     1
 90
        1
176
     1
 90
        1
176
     1
 40
1.0
176
     1
 90
        8
176
     1
 62
     7
176
     1
 40
1.0
176
     1
 90
        1
176
     1
 90
        6
176
     1
 90
        2
176
     1
 62
     7
176
     1
 90
        5
176
     1
 90
        0
176
     1
 90
        0
176
     1
290
     0
176
     1
 90
        1
176
     1
 40
0.0
176
     1
 90
        0
176
     1
290
     0
176
     1
290
     1
176
     1
290
     1
176
     1
290
     0
176
     1
290
     0
176
     1
290
     0
176
     1
290
     0
176
     1
290
     0
176
     1
290
     0
176
     1
 90
       50
176
     1
 40
0.0
176
     1
 40
1.0
176
     1
 90
        0
176
     1
 62
    18
420
        0
176
     1
 90
       50
176
     1
 90
        3
176
     1
 62
     5
420
      255
176
     1
290
     0
176
     1
 90
       50
176
     1
 90
       50
176
     1
 90
       50
176
     1
290
     0
176
     1
 90
       50
176
     1
 62
   256
176
     0
 40
1.0
176
     0
 90
        2
176
     1
  1
strokes_ogs.tif
176
     1
290
     0
176
     1
 40
1.0
176
     1
 40
1.0
176
     1
  0
VISUALSTYLE
  5
56D4
102
{ACAD_REACTORS
330
56D3
102
}
330
56D3
100
AcDbVisualStyle
  2
Flat
 70
     0
177
     3
291
     1
 70
    58
 90
        2
176
     1
 90
        1
176
     1
 90
        1
176
     1
 90
        2
176
     1
 40
0.6
176
     1
 40
30.0
176
     1
 62
     7
176
     1
 90
        0
176
     1
 90
        0
176
     1
 62
     7
176
     1
 62
   257
176
     1
 90
        1
176
     1
 90
        1
176
     1
 40
1.0
176
     1
 90
        8
176
     1
 62
     7
176
     1
 40
1.0
176
     1
 90
        1
176
     1
 90
        6
176
     1
 90
        2
176
     1
 62
     7
176
     1
 90
        5
176
     1
 90
        0
176
     1
 90
        0
176
     1
290
     0
176
     1
 90
       13
176
     1
 40
0.0
176
     1
 90
        0
176
     1
290
     0
176
     1
290
     1
176
     1
290
     1
176
     1
290
     0
176
     1
290
     0
176
     1
290
     0
176
     1
290
     0
176
     1
290
     0
176
     1
290
     0
176
     1
 90
       50
176
     1
 40
0.0
176
     1
 40
1.0
176
     1
 90
        0
176
     1
 62
    18
420
        0
176
     1
 90
       50
176
     1
 90
        3
176
     1
 62
     5
420
      255
176
     1
290
     0
176
     1
 90
       50
176
     1
 90
       50
176
     1
 90
       50
176
     1
290
     0
176
     1
 90
       50
176
     1
 62
   256
176
     0
 40
1.0
176
     0
 90
        2
176
     1
  1
strokes_ogs.tif
176
     1
290
     0
176
     1
 40
1.0
176
     1
 40
1.0
176
     1
  0
VISUALSTYLE
  5
56D5
102
{ACAD_REACTORS
330
56D3
102
}
330
56D3
100
AcDbVisualStyle
  2
FlatWithEdges
 70
     1
177
     3
291
     1
 70
    58
 90
        2
176
     1
 90
        1
176
     1
 90
        1
176
     1
 90
        2
176
     1
 40
0.6
176
     1
 40
30.0
176
     1
 62
     7
176
     1
 90
        1
176
     1
 90
        0
176
     1
 62
     7
176
     1
 62
   257
176
     1
 90
        1
176
     1
 90
        1
176
     1
 40
1.0
176
     1
 90
        0
176
     1
 62
   257
176
     1
 40
1.0
176
     1
 90
        1
176
     1
 90
        6
176
     1
 90
        2
176
     1
 62
     7
176
     1
 90
        5
176
     1
 90
        0
176
     1
 90
        0
176
     1
290
     0
176
     1
 90
       13
176
     1
 40
0.0
176
     1
 90
        0
176
     1
290
     0
176
     1
290
     1
176
     1
290
     1
176
     1
290
     0
176
     1
290
     0
176
     1
290
     0
176
     1
290
     0
176
     1
290
     0
176
     1
290
     0
176
     1
 90
       50
176
     1
 40
0.0
176
     1
 40
1.0
176
     1
 90
        0
176
     1
 62
    18
420
        0
176
     1
 90
       50
176
     1
 90
        3
176
     1
 62
     5
420
      255
176
     1
290
     0
176
     1
 90
       50
176
     1
 90
       50
176
     1
 90
       50
176
     1
290
     0
176
     1
 90
       50
176
     1
 62
   256
176
     0
 40
1.0
176
     0
 90
        2
176
     1
  1
strokes_ogs.tif
176
     1
290
     0
176
     1
 40
1.0
176
     1
 40
1.0
176
     1
  0
VISUALSTYLE
  5
56D6
102
{ACAD_REACTORS
330
56D3
102
}
330
56D3
100
AcDbVisualStyle
  2
Gouraud
 70
     2
177
     3
291
     1
 70
    58
 90
        2
176
     1
 90
        2
176
     1
 90
        1
176
     1
 90
        2
176
     1
 40
0.6
176
     1
 40
30.0
176
     1
 62
     7
176
     1
 90
        0
176
     1
 90
        0
176
     1
 62
     7
176
     1
 62
   257
176
     1
 90
        1
176
     1
 90
        1
176
     1
 40
1.0
176
     1
 90
        0
176
     1
 62
     7
176
     1
 40
1.0
176
     1
 90
        1
176
     1
 90
        6
176
     1
 90
        2
176
     1
 62
     7
176
     1
 90
        5
176
     1
 90
        0
176
     1
 90
        0
176
     1
290
     0
176
     1
 90
       13
176
     1
 40
0.0
176
     1
 90
        0
176
     1
290
     0
176
     1
290
     1
176
     1
290
     1
176
     1
290
     0
176
     1
290
     0
176
     1
290
     0
176
     1
290
     0
176
     1
290
     0
176
     1
290
     0
176
     1
 90
       50
176
     1
 40
0.0
176
     1
 40
1.0
176
     1
 90
        0
176
     1
 62
    18
420
        0
176
     1
 90
       50
176
     1
 90
        3
176
     1
 62
     5
420
      255
176
     1
290
     0
176
     1
 90
       50
176
     1
 90
       50
176
     1
 90
       50
176
     1
290
     0
176
     1
 90
       50
176
     1
 62
   256
176
     0
 40
1.0
176
     0
 90
        2
176
     1
  1
strokes_ogs.tif
176
     1
290
     0
176
     1
 40
1.0
176
     1
 40
1.0
176
     1
  0
VISUALSTYLE
  5
56D7
102
{ACAD_REACTORS
330
56D3
102
}
330
56D3
100
AcDbVisualStyle
  2
GouraudWithEdges
 70
     3
177
     3
291
     1
 70
    58
 90
        2
176
     1
 90
        2
176
     1
 90
        1
176
     1
 90
        2
176
     1
 40
0.6
176
     1
 40
30.0
176
     1
 62
     7
176
     1
 90
        1
176
     1
 90
        0
176
     1
 62
     7
176
     1
 62
   257
176
     1
 90
        1
176
     1
 90
        1
176
     1
 40
1.0
176
     1
 90
        0
176
     1
 62
   257
176
     1
 40
1.0
176
     1
 90
        1
176
     1
 90
        6
176
     1
 90
        2
176
     1
 62
     7
176
     1
 90
        5
176
     1
 90
        0
176
     1
 90
        0
176
     1
290
     0
176
     1
 90
       13
176
     1
 40
0.0
176
     1
 90
        0
176
     1
290
     0
176
     1
290
     1
176
     1
290
     1
176
     1
290
     0
176
     1
290
     0
176
     1
290
     0
176
     1
290
     0
176
     1
290
     0
176
     1
290
     0
176
     1
 90
       50
176
     1
 40
0.0
176
     1
 40
1.0
176
     1
 90
        0
176
     1
 62
    18
420
        0
176
     1
 90
       50
176
     1
 90
        3
176
     1
 62
     5
420
      255
176
     1
290
     0
176
     1
 90
       50
176
     1
 90
       50
176
     1
 90
       50
176
     1
290
     0
176
     1
 90
       50
176
     1
 62
   256
176
     0
 40
1.0
176
     0
 90
        2
176
     1
  1
strokes_ogs.tif
176
     1
290
     0
176
     1
 40
1.0
176
     1
 40
1.0
176
     1
  0
VISUALSTYLE
  5
56DA
102
{ACAD_REACTORS
330
56D3
102
}
330
56D3
100
AcDbVisualStyle
  2
Hidden
 70
     6
177
     3
291
     0
 70
    58
 90
        1
176
     1
 90
        2
176
     1
 90
        2
176
     1
 90
        0
176
     1
 40
0.6
176
     1
 40
30.0
176
     1
 62
     7
176
     1
 90
        2
176
     1
 90
        2
176
     1
 62
     7
176
     1
 62
   257
176
     1
 90
        2
176
     1
 90
        1
176
     1
 40
40.0
176
     1
 90
        0
176
     1
 62
   257
176
     1
 40
1.0
176
     1
 90
        1
176
     1
 90
        6
176
     1
 90
        2
176
     1
 62
     7
176
     1
 90
        3
176
     1
 90
        0
176
     1
 90
        0
176
     1
290
     0
176
     1
 90
        1
176
     1
 40
0.0
176
     1
 90
        0
176
     1
290
     0
176
     1
290
     1
176
     1
290
     1
176
     1
290
     0
176
     1
290
     0
176
     1
290
     0
176
     1
290
     0
176
     1
290
     0
176
     1
290
     0
176
     1
 90
       50
176
     1
 40
0.0
176
     1
 40
1.0
176
     1
 90
        0
176
     1
 62
    18
420
        0
176
     1
 90
       50
176
     1
 90
        3
176
     1
 62
     5
420
      255
176
     1
290
     0
176
     1
 90
       50
176
     1
 90
       50
176
     1
 90
       50
176
     1
290
     0
176
     1
 90
       50
176
     1
 62
   256
176
     0
 40
1.0
176
     0
 90
        2
176
     1
  1
strokes_ogs.tif
176
     1
290
     0
176
     1
 40
1.0
176
     1
 40
1.0
176
     1
  0
VISUALSTYLE
  5
56E4
102
{ACAD_REACTORS
330
56D3
102
}
330
56D3
100
AcDbVisualStyle
  2
JitterOff
 70
    20
177
     3
291
     1
 70
    58
 90
        2
176
     1
 90
        2
176
     1
 90
        0
176
     1
 90
        0
176
     1
 40
0.6
176
     1
 40
30.0
176
     1
 62
     7
176
     1
 90
        1
176
     1
 90
        4
176
     1
 62
     7
176
     1
 62
   257
176
     1
 90
        1
176
     1
 90
        1
176
     1
 40
1.0
176
     1
 90
       10
176
     1
 62
     7
176
     1
 40
1.0
176
     1
 90
        1
176
     1
 90
        6
176
     1
 90
        2
176
     1
 62
     7
176
     1
 90
        5
176
     1
 90
        0
176
     1
 90
        0
176
     1
290
     0
176
     1
 90
        1
176
     1
 40
0.0
176
     1
 90
        0
176
     1
290
     0
176
     1
290
     1
176
     1
290
     1
176
     1
290
     0
176
     1
290
     0
176
     1
290
     0
176
     1
290
     0
176
     1
290
     0
176
     1
290
     0
176
     1
 90
       50
176
     1
 40
0.0
176
     1
 40
1.0
176
     1
 90
        0
176
     1
 62
    18
420
        0
176
     1
 90
       50
176
     1
 90
        3
176
     1
 62
     5
420
      255
176
     1
290
     0
176
     1
 90
       50
176
     1
 90
       50
176
     1
 90
       50
176
     1
290
     0
176
     1
 90
       50
176
     1
 62
   256
176
     0
 40
1.0
176
     0
 90
        2
176
     1
  1
strokes_ogs.tif
176
     1
290
     0
176
     1
 40
1.0
176
     1
 40
1.0
176
     1
  0
VISUALSTYLE
  5
56E1
102
{ACAD_REACTORS
330
56D3
102
}
330
56D3
100
AcDbVisualStyle
  2
Linepattern
 70
    14
177
     3
291
     1
 70
    58
 90
        2
176
     1
 90
        2
176
     1
 90
        0
176
     1
 90
        0
176
     1
 40
0.6
176
     1
 40
30.0
176
     1
 62
     7
176
     1
 90
        1
176
     1
 90
        4
176
     1
 62
     7
176
     1
 62
   257
176
     1
 90
        7
176
     1
 90
        7
176
     1
 40
1.0
176
     1
 90
        8
176
     1
 62
     7
176
     1
 40
1.0
176
     1
 90
        1
176
     1
 90
        6
176
     1
 90
        2
176
     1
 62
     7
176
     1
 90
        5
176
     1
 90
        0
176
     1
 90
        0
176
     1
290
     0
176
     1
 90
        1
176
     1
 40
0.0
176
     1
 90
        0
176
     1
290
     0
176
     1
290
     1
176
     1
290
     1
176
     1
290
     0
176
     1
290
     0
176
     1
290
     0
176
     1
290
     0
176
     1
290
     0
176
     1
290
     0
176
     1
 90
       50
176
     1
 40
0.0
176
     1
 40
1.0
176
     1
 90
        0
176
     1
 62
    18
420
        0
176
     1
 90
       50
176
     1
 90
        3
176
     1
 62
     5
420
      255
176
     1
290
     0
176
     1
 90
       50
176
     1
 90
       50
176
     1
 90
       50
176
     1
290
     0
176
     1
 90
       50
176
     1
 62
   256
176
     0
 40
1.0
176
     0
 90
        2
176
     1
  1
strokes_ogs.tif
176
     1
290
     0
176
     1
 40
1.0
176
     1
 40
1.0
176
     1
  0
VISUALSTYLE
  5
56E5
102
{ACAD_REACTORS
330
56D3
102
}
330
56D3
100
AcDbVisualStyle
  2
OverhangOff
 70
    21
177
     3
291
     1
 70
    58
 90
        2
176
     1
 90
        2
176
     1
 90
        0
176
     1
 90
        0
176
     1
 40
0.6
176
     1
 40
30.0
176
     1
 62
     7
176
     1
 90
        1
176
     1
 90
        4
176
     1
 62
     7
176
     1
 62
   257
176
     1
 90
        1
176
     1
 90
        1
176
     1
 40
1.0
176
     1
 90
        9
176
     1
 62
     7
176
     1
 40
1.0
176
     1
 90
        1
176
     1
 90
        6
176
     1
 90
        2
176
     1
 62
     7
176
     1
 90
        5
176
     1
 90
        0
176
     1
 90
        0
176
     1
290
     0
176
     1
 90
        1
176
     1
 40
0.0
176
     1
 90
        0
176
     1
290
     0
176
     1
290
     1
176
     1
290
     1
176
     1
290
     0
176
     1
290
     0
176
     1
290
     0
176
     1
290
     0
176
     1
290
     0
176
     1
290
     0
176
     1
 90
       50
176
     1
 40
0.0
176
     1
 40
1.0
176
     1
 90
        0
176
     1
 62
    18
420
        0
176
     1
 90
       50
176
     1
 90
        3
176
     1
 62
     5
420
      255
176
     1
290
     0
176
     1
 90
       50
176
     1
 90
       50
176
     1
 90
       50
176
     1
290
     0
176
     1
 90
       50
176
     1
 62
   256
176
     0
 40
1.0
176
     0
 90
        2
176
     1
  1
strokes_ogs.tif
176
     1
290
     0
176
     1
 40
1.0
176
     1
 40
1.0
176
     1
  0
VISUALSTYLE
  5
56DC
102
{ACAD_REACTORS
330
56D3
102
}
330
56D3
100
AcDbVisualStyle
  2
Realistic
 70
     8
177
     3
291
     0
 70
    58
 90
        2
176
     1
 90
        3
176
     1
 90
        0
176
     1
 90
        2
176
     1
 40
0.6
176
     1
 40
30.0
176
     1
 62
     7
176
     1
 90
        0
176
     1
 90
        0
176
     1
 62
     7
176
     1
 62
   257
176
     1
 90
        1
176
     1
 90
        1
176
     1
 40
1.0
176
     1
 90
        8
176
     1
 62
   257
176
     1
 40
1.0
176
     1
 90
        1
176
     1
 90
        6
176
     1
 90
        2
176
     1
 62
     7
176
     1
 90
        3
176
     1
 90
        0
176
     1
 90
        0
176
     1
290
     0
176
     1
 90
       13
176
     1
 40
0.0
176
     1
 90
        0
176
     1
290
     0
176
     1
290
     1
176
     1
290
     1
176
     1
290
     0
176
     1
290
     0
176
     1
290
     0
176
     1
290
     0
176
     1
290
     0
176
     1
290
     0
176
     1
 90
       50
176
     1
 40
0.0
176
     1
 40
1.0
176
     1
 90
        0
176
     1
 62
    18
420
        0
176
     1
 90
       50
176
     1
 90
        3
176
     1
 62
     5
420
      255
176
     1
290
     0
176
     1
 90
       50
176
     1
 90
       50
176
     1
 90
       50
176
     1
290
     0
176
     1
 90
       50
176
     1
 62
   256
176
     0
 40
1.0
176
     0
 90
        2
176
     1
  1
strokes_ogs.tif
176
     1
290
     0
176
     1
 40
1.0
176
     1
 40
1.0
176
     1
  0
VISUALSTYLE
  5
56EB
102
{ACAD_REACTORS
330
56D3
102
}
330
56D3
100
AcDbVisualStyle
  2
Shaded
 70
    27
177
     3
291
     0
 70
    58
 90
        2
176
     1
 90
        2
176
     1
 90
        1
176
     1
 90
        2
176
     1
 40
0.6
176
     1
 40
30.0
176
     1
 62
     7
176
     1
 90
        0
176
     1
 90
        4
176
     1
 62
     7
176
     1
 62
   257
176
     1
 90
        1
176
     1
 90
        1
176
     1
 40
1.0
176
     1
 90
        8
176
     1
 62
   257
176
     1
 40
1.0
176
     1
 90
        1
176
     1
 90
        6
176
     1
 90
        2
176
     1
 62
     8
176
     1
 90
        3
176
     1
 90
        0
176
     1
 90
        0
176
     1
290
     0
176
     1
 90
        5
176
     1
 40
0.0
176
     1
 90
        0
176
     1
290
     0
176
     1
290
     1
176
     1
290
     1
176
     1
290
     0
176
     1
290
     0
176
     1
290
     0
176
     1
290
     0
176
     1
290
     0
176
     1
290
     0
176
     1
 90
       50
176
     1
 40
0.0
176
     1
 40
1.0
176
     1
 90
        0
176
     1
 62
    18
420
        0
176
     1
 90
       50
176
     1
 90
        3
176
     1
 62
     5
420
      255
176
     1
290
     0
176
     1
 90
       50
176
     1
 90
       50
176
     1
 90
       50
176
     1
290
     0
176
     1
 90
       50
176
     1
 62
   256
176
     0
 40
1.0
176
     0
 90
        2
176
     1
  1
strokes_ogs.tif
176
     1
290
     0
176
     1
 40
1.0
176
     1
 40
1.0
176
     1
  0
VISUALSTYLE
  5
56EA
102
{ACAD_REACTORS
330
56D3
102
}
330
56D3
100
AcDbVisualStyle
  2
Shaded with edges
 70
    26
177
     3
291
     0
 70
    58
 90
        2
176
     1
 90
        2
176
     1
 90
        1
176
     1
 90
        2
176
     1
 40
0.6
176
     1
 40
30.0
176
     1
 62
     7
176
     1
 90
        1
176
     1
 90
       10
176
     1
 62
     7
176
     1
 62
   257
176
     1
 90
        2
176
     1
 90
        1
176
     1
 40
1.0
176
     1
 90
        8
176
     1
 62
   257
176
     1
 40
1.0
176
     1
 90
        1
176
     1
 90
        6
176
     1
 90
        2
176
     1
 62
     7
176
     1
 90
        3
176
     1
 90
        0
176
     1
 90
        0
176
     1
290
     0
176
     1
 90
        5
176
     1
 40
0.0
176
     1
 90
        0
176
     1
290
     0
176
     1
290
     1
176
     1
290
     1
176
     1
290
     0
176
     1
290
     0
176
     1
290
     0
176
     1
290
     0
176
     1
290
     0
176
     1
290
     0
176
     1
 90
       50
176
     1
 40
0.0
176
     1
 40
1.0
176
     1
 90
        0
176
     1
 62
    18
420
        0
176
     1
 90
       50
176
     1
 90
        3
176
     1
 62
     5
420
      255
176
     1
290
     0
176
     1
 90
       50
176
     1
 90
       50
176
     1
 90
       50
176
     1
290
     0
176
     1
 90
       50
176
     1
 62
   256
176
     0
 40
1.0
176
     0
 90
        2
176
     1
  1
strokes_ogs.tif
176
     1
290
     0
176
     1
 40
1.0
176
     1
 40
1.0
176
     1
  0
VISUALSTYLE
  5
56E7
102
{ACAD_REACTORS
330
56D3
102
}
330
56D3
100
AcDbVisualStyle
  2
Shades of Gray
 70
    23
177
     3
291
     0
 70
    58
 90
        2
176
     1
 90
        2
176
     1
 90
        3
176
     1
 90
        0
176
     1
 40
0.6
176
     1
 40
30.0
176
     1
 62
     7
176
     1
 90
        2
176
     1
 90
        2
176
     1
 62
     7
176
     1
 62
     7
176
     1
 90
        1
176
     1
 90
        1
176
     1
 40
40.0
176
     1
 90
        8
176
     1
 62
     7
176
     1
 40
1.0
176
     1
 90
        1
176
     1
 90
        6
176
     1
 90
        2
176
     1
 62
     7
176
     1
 90
        3
176
     1
 90
        0
176
     1
 90
        0
176
     1
290
     0
176
     1
 90
        1
176
     1
 40
0.0
176
     1
 90
        0
176
     1
290
     0
176
     1
290
     1
176
     1
290
     1
176
     1
290
     0
176
     1
290
     0
176
     1
290
     0
176
     1
290
     0
176
     1
290
     0
176
     1
290
     0
176
     1
 90
       50
176
     1
 40
0.0
176
     1
 40
1.0
176
     1
 90
        0
176
     1
 62
    18
420
        0
176
     1
 90
       50
176
     1
 90
        3
176
     1
 62
     5
420
      255
176
     1
290
     0
176
     1
 90
       50
176
     1
 90
       50
176
     1
 90
       50
176
     1
290
     0
176
     1
 90
       50
176
     1
 62
   256
176
     0
 40
1.0
176
     0
 90
        2
176
     1
  1
strokes_ogs.tif
176
     1
290
     0
176
     1
 40
1.0
176
     1
 40
1.0
176
     1
  0
VISUALSTYLE
  5
56E8
102
{ACAD_REACTORS
330
56D3
102
}
330
56D3
100
AcDbVisualStyle
  2
Sketchy
 70
    24
177
     3
291
     0
 70
    58
 90
        1
176
     1
 90
        2
176
     1
 90
        2
176
     1
 90
        0
176
     1
 40
0.6
176
     1
 40
30.0
176
     1
 62
     7
176
     1
 90
        2
176
     1
 90
        2
176
     1
 62
     7
176
     1
 62
     7
176
     1
 90
        1
176
     1
 90
        1
176
     1
 40
40.0
176
     1
 90
       11
176
     1
 62
     7
176
     1
 40
1.0
176
     1
 90
        1
176
     1
 90
        6
176
     1
 90
        2
176
     1
 62
     7
176
     1
 90
        6
176
     1
 90
        0
176
     1
 90
        0
176
     1
290
     0
176
     1
 90
        1
176
     1
 40
0.0
176
     1
 90
        0
176
     1
290
     0
176
     1
290
     1
176
     1
290
     1
176
     1
290
     0
176
     1
290
     0
176
     1
290
     0
176
     1
290
     0
176
     1
290
     0
176
     1
290
     0
176
     1
 90
       50
176
     1
 40
0.0
176
     1
 40
1.0
176
     1
 90
        0
176
     1
 62
    18
420
        0
176
     1
 90
       50
176
     1
 90
        3
176
     1
 62
     5
420
      255
176
     1
290
     0
176
     1
 90
       50
176
     1
 90
       50
176
     1
 90
       50
176
     1
290
     0
176
     1
 90
       50
176
     1
 62
   256
176
     0
 40
1.0
176
     0
 90
        2
176
     1
  1
strokes_ogs.tif
176
     1
290
     0
176
     1
 40
1.0
176
     1
 40
1.0
176
     1
  0
VISUALSTYLE
  5
56E0
102
{ACAD_REACTORS
330
56D3
102
}
330
56D3
100
AcDbVisualStyle
  2
Thicken
 70
    13
177
     3
291
     1
 70
    58
 90
        2
176
     1
 90
        2
176
     1
 90
        0
176
     1
 90
        0
176
     1
 40
0.6
176
     1
 40
30.0
176
     1
 62
     7
176
     1
 90
        1
176
     1
 90
        4
176
     1
 62
     7
176
     1
 62
   257
176
     1
 90
        1
176
     1
 90
        1
176
     1
 40
1.0
176
     1
 90
       12
176
     1
 62
     7
176
     1
 40
1.0
176
     1
 90
        1
176
     1
 90
        6
176
     1
 90
        2
176
     1
 62
     7
176
     1
 90
        5
176
     1
 90
        0
176
     1
 90
        0
176
     1
290
     0
176
     1
 90
        1
176
     1
 40
0.0
176
     1
 90
        0
176
     1
290
     0
176
     1
290
     1
176
     1
290
     1
176
     1
290
     0
176
     1
290
     0
176
     1
290
     0
176
     1
290
     0
176
     1
290
     0
176
     1
290
     0
176
     1
 90
       50
176
     1
 40
0.0
176
     1
 40
1.0
176
     1
 90
        0
176
     1
 62
    18
420
        0
176
     1
 90
       50
176
     1
 90
        3
176
     1
 62
     5
420
      255
176
     1
290
     0
176
     1
 90
       50
176
     1
 90
       50
176
     1
 90
       50
176
     1
290
     0
176
     1
 90
       50
176
     1
 62
   256
176
     0
 40
1.0
176
     0
 90
        2
176
     1
  1
strokes_ogs.tif
176
     1
290
     0
176
     1
 40
1.0
176
     1
 40
1.0
176
     1
  0
VISUALSTYLE
  5
56D9
102
{ACAD_REACTORS
330
56D3
102
}
330
56D3
100
AcDbVisualStyle
  2
Wireframe
 70
     5
177
     3
291
     0
 70
    58
 90
        0
176
     1
 90
        2
176
     1
 90
        0
176
     1
 90
        0
176
     1
 40
0.6
176
     1
 40
30.0
176
     1
 62
     7
176
     1
 90
        1
176
     1
 90
        4
176
     1
 62
     7
176
     1
 62
   257
176
     1
 90
        1
176
     1
 90
        1
176
     1
 40
1.0
176
     1
 90
        0
176
     1
 62
   257
176
     1
 40
1.0
176
     1
 90
        1
176
     1
 90
        6
176
     1
 90
        2
176
     1
 62
     7
176
     1
 90
        3
176
     1
 90
        0
176
     1
 90
        0
176
     1
290
     0
176
     1
 90
        1
176
     1
 40
0.0
176
     1
 90
        0
176
     1
290
     0
176
     1
290
     1
176
     1
290
     1
176
     1
290
     0
176
     1
290
     0
176
     1
290
     0
176
     1
290
     0
176
     1
290
     0
176
     1
290
     0
176
     1
 90
       50
176
     1
 40
0.0
176
     1
 40
1.0
176
     1
 90
        0
176
     1
 62
    18
420
        0
176
     1
 90
       50
176
     1
 90
        3
176
     1
 62
     5
420
      255
176
     1
290
     0
176
     1
 90
       50
176
     1
 90
       50
176
     1
 90
       50
176
     1
290
     0
176
     1
 90
       50
176
     1
 62
   256
176
     0
 40
1.0
176
     0
 90
        2
176
     1
  1
strokes_ogs.tif
176
     1
290
     0
176
     1
 40
1.0
176
     1
 40
1.0
176
     1
  0
VISUALSTYLE
  5
56E9
102
{ACAD_REACTORS
330
56D3
102
}
330
56D3
100
AcDbVisualStyle
  2
X-Ray
 70
    25
177
     3
291
     0
 70
    58
 90
        2
176
     1
 90
        2
176
     1
 90
        1
176
     1
 90
        1
176
     1
 40
0.5
176
     1
 40
30.0
176
     1
 62
     7
176
     1
 90
        1
176
     1
 90
        0
176
     1
 62
     7
176
     1
 62
   257
176
     1
 90
        1
176
     1
 90
        1
176
     1
 40
1.0
176
     1
 90
        8
176
     1
 62
     7
176
     1
 40
1.0
176
     1
 90
        1
176
     1
 90
        6
176
     1
 90
        2
176
     1
 62
     7
176
     1
 90
        3
176
     1
 90
        0
176
     1
 90
        0
176
     1
290
     0
176
     1
 90
       13
176
     1
 40
0.0
176
     1
 90
        0
176
     1
290
     0
176
     1
290
     1
176
     1
290
     1
176
     1
290
     0
176
     1
290
     0
176
     1
290
     0
176
     1
290
     0
176
     1
290
     0
176
     1
290
     0
176
     1
 90
       50
176
     1
 40
0.0
176
     1
 40
1.0
176
     1
 90
        0
176
     1
 62
    18
420
        0
176
     1
 90
       50
176
     1
 90
        3
176
     1
 62
     5
420
      255
176
     1
290
     0
176
     1
 90
       50
176
     1
 90
       50
176
     1
 90
       50
176
     1
290
     0
176
     1
 90
       50
176
     1
 62
   256
176
     0
 40
1.0
176
     0
 90
        2
176
     1
  1
strokes_ogs.tif
176
     1
290
     0
176
     1
 40
1.0
176
     1
 40
1.0
176
     1
  0
DICTIONARYVAR
  5
6284
102
{ACAD_REACTORS
330
5778
102
}
330
5778
100
DictionaryVariables
280
     0
  1
1:1
  0
DICTIONARYVAR
  5
5C6B
102
{ACAD_REACTORS
330
5778
102
}
330
5778
100
DictionaryVariables
280
     0
  1
2
  0
DICTIONARYVAR
  5
5C6C
102
{ACAD_REACTORS
330
5778
102
}
330
5778
100
DictionaryVariables
280
     0
  1
1
  0
DICTIONARYVAR
  5
577A
102
{ACAD_REACTORS
330
5778
102
}
330
5778
100
DictionaryVariables
280
     0
  1
0
  0
CSACDOCUMENTOPTIONS
  5
56F5
102
{ACAD_REACTORS
330
56F4
102
}
330
56F4
  0
XRECORD
  5
5776
102
{ACAD_REACTORS
330
56EE
102
}
330
56EE
100
AcDbXrecord
280
     1
300
MC_VERSION_DATA
 90
       95
310
0600000002000000570000001C000000E404000000000000000000007801936764E5D8CF7A8393818115C460606066E0646662626666706006F214793899F8DE3171E725E6E53B3BBA2878E6951050AF75FEFFFFFF520032DE0F3057000000
  0
XRECORD
  5
56EF
102
{ACAD_REACTORS
330
56EE
102
}
330
56EE
100
AcDbXrecord
280
     1
300
MCS_DOCUMENT_ID
 90
       60
310
0600000002000000150000001C000000E404000000000000000000007801E33D7DDE60F306B9F9AE8BF47FB0E7AFFC52F61F080076360C8B15000000
  0
XRECORD
  5
5774
102
{ACAD_REACTORS
330
56EE
102
}
330
56EE
100
AcDbXrecord
280
     1
300
MCS_PARAMS_DATA
 90
     3313
310
0600000002000000F64B00001C000000E404000000000000000000007801C55C5B905C45199EE99EBDCCE67E5DA218172C303B91307B4B8C459531245054850D55591F78B236BB49B9BAC9E6B22A082A9655BE5865596569A965F9209288CF16503EC8834088C10B092404211702988430422E9084CDAEFFD7A7FBF4DFA7CF
310
D9D99D9D39930798FF3F7DCEF7DFFAFBBBFBCC6CDBFC46297252EECB48F9CDF5ED5234493921A5206D76815820B252E4F3225F128D7D5F59BF69E3162948D9A2D485B3131313747328BF06593E960915079422437734AA3BDAA5CCD053F5ED4FD2557D257BAB94DF007A03479F859BB2B22193C9108EC1CDCADC0464C27506
310
28605703E48886E0B986E10F03BF91E33707F8E3140E7A9091C8268236920C1C662240B94888A1C8E07600AE99C32D5131CA8B3925D172EFE62D7D6D9DABBA8ADDD6F17CE16D13F0457AE8AC9268DE32DABF73B07FCFA013F9BF8491D7C17E2550D8E8FFCA8DFE4E98B3929B331718B291824FFF72EB941D9E8E2211D5A93C
310
784A44C557923911258BD0C8640531AEEC61A924855B11378280384364A422680C0A928DB9C10CD89D581114199665B722B26E4590C82B0222AB08FAA8A60626C028E0044F81BA246F5360E167F2D27C56A10E05C058C13C59DEC6207679103AFC5DEADF992F2B284F67B31C8EE359B64A9665A62453228F64269D98455E3B
310
A4B35817F7EC92C86FB8EFFE8DBD5BEEDBDCAB0CD3B5FC8E99065A7E55D536E39DE7826237F1C8BBBCB3CFADFC93302087C80397EE69C2FF69CA32234F0763E41851010DA578E8294D435524988818E84710A7B2643B4F7C034F6CE5C9368F203BE8094C6268541D70D35EE4B585DAE170F4942EB8D2D422560A9917F34B62
310
CE86919D9F1F6DDBB36DD770FFC0B6BC682E898607BEB5737424F8D83B323AF07529CFC0B69BB96D9FD3CFF9B410ED79B1A42416161FEA29AEEDEEEC5ADF532C76DEF3C5AEEEB5CAECF97A60330D2C1C3579EAD0DA7621F20269BD6768746FDBF0D0DE51F3B0EE356B3ABBD6F474F7740D76770EACED08FCFC92BEAF13F701
310
B5AF7FEBF0B6B691ED6D7D23C3DBF6F4EF840FDA9AD583C58E81E240FFEAADDD5BD70EAC0E669D2A25F27FB610851F9335859F059541B9E5971EC7A5A7E83F2CE53DB9A4040555A2661A4DDBF2C560B2E54E7D5483931EF871F7C88E5DFDA3435B878687461F6EDB313248FE3596847C70DBDEBC682809D13B22E56A5856E4
310
E9998738519B6E2A89DCE6EDDBDB542AF4E4380F8F61A4965F57116093E5A052A06AF588670205D9A715FB49B140D81A90855F902680EBB8B3A3187EEA96F2B224E392BAF898328CB1AD47DA34C1601A1B421AD816D190715CC3F276A5DE067C546F03AED6DB808FEB6DC0B57A1BB00853B49EB3E0937A47E07ABD0D188301
310
71CB797197D3603B1D06BFCB6DB024827C0C834324E60945463B3712E196397079076E990B47228783C8E09631B8F129C211385B3E540C97413DC70673C524DEAD70BD23917B079179B782793791AE77D944EFDCDC5529988B13E1069D6092C472A7F777A6F648E4C184C88239C8822913E16AE29D48176E29E0727C316496
310
EF2A967C95165E504B0C2B218EEE82DD5C63513CD614C5091F6D6FA7551865CC5C5030A1E0A3E84BEC86CFD04EC5DD01AA74CBDB05AB8C403295A124BB2908C4B032B4682A032283FB103E391B4E03172C7199C4E0F88E871E8855ADA1482D3238FA1846E0B807A77785BFF935FE1D74369F5647D0D171CA5F4F09337C2559
310
105132935A503D6DBC7A94B54D2B6DF1E0339960F436A97441791E5EC104D40283580888C4FDED577B1FD8B4B9AF6FE30605D8AAD7F1F34A62F6DD5BBEC62E92057A31FEA25A9DB3F5FBD3C1729D9CD723B0BF0DE8402BB05A67160DDE4416E59079C0D9EAA575B7321F67115FC018C76AB5B3A33D06B68CBD9BFBDC93C073
310
800CC384FD360C544F539B6F02B1820953BE9D01DE01C0D85A6C50369A5AC4065C7760793B965800321749E4B50891C0C2AB0CAE9808178444974C70F875952A9381563C01BE9D08EAFA481283ABD8C7EF7870DAABE068E68833DFAC8EA0A3E3F87C0B07AA507B2311F0889285BDC333294C4E2DB27C67BA70ABD2857B688A
310
70552AA7873DB8489E55063D5D2DCBE9BB9E49F1E554A5083C922EDCA3E9C27D2F5DB8EF7B705EE9D87E1E920E88313AAE6AECF4FBD668D3D30DB4E51ADA9BEDB0D7AFCEB4DDED85F7C4ECF6551B3BCE2AFF6E835E49458EC94883D6E73C45753FAE614C3C0A0362777435D915EC025C33F7578776011DE6F3D066954C59D6
310
D76F86AC9CD58A53F4122CF0552BAE070AEA3B5AF15752304F1F47569D50AB71F41A31FA5A51C904CD43C6B0F51D2ACEFC112ACC4CC1B0FF086CE7AD5A4D096A005126387AAD451EE384D9C035A925859E39C1AA865EE9A9B8DA21CEE289167F7CF1D4C4BC7A125EC5AED5D8BB0B5A9D9144D134CFA71BF85A8D44BE568348
310
F6AA55A2F3CAEA4F6982FD21118CC249D3CBF852A586F244BA70FBD285DB9F085793EDE56E143F0AD06C6B4CB2242BDD3DD1419166C2865E81F9CE1648F3CBD84597B22E28992A3DDCE24C77F3F311A01C8A722828EC3CF15F7D987933F818F8E59BC138E5CD4CE8AC24C94E68BA32F5C3CBAB808B6B06B9936E642F9F804C
310
903AF2F3709D37832318A078E4B37AEBDCFAA66859945B9EBB25776BAE2DD3995995E9CA1433DDFA4DAC7ECE6FE93696E96BB06712968ED2661884A9EE40230F60D0D73DE8C858453B9E8E4212D5A9B0784A762662599FEDD18C9299F4094C728A91F536658E91CDA6DFC8E89F363B15B4CB31404FD2581CF722BBF229B517
310
430944E56AB2E2A8E3461950730F2B7ECA7BC570E389706E8BA9D241C744225C40C29385944F707279EA277D998065D9EAD604B1263E66D38513E9C2490F4EE7CC6E8AA89C3D9DA588701CA708AB6414C194931EE3FC0D4515D71A4FBFE712F8CB4A26532A6E8DCF01CA61A3745BE3F3C09F6E6B442F0CD7BAD36A8D2F002E
310
AE359E3BE646F6B8926D6BBC0CD9926FBEF08C5220B9BAE91D0E14769FF44B52301E3C00E8FA74C117BD24F396E22C7F1005F2DA2902EB76053DE720B0D3EE397F2F036AE8B24A3DE750225C4DF8F8A544B81AF69C7F2482D6C4C77F067093EF36FE359541FF8E0E8A50399BA22F63681CEF0EBDEBB2C3834A9E09EF1E0654
310
1D79F708F0A7CBBB956F495E015C1CEFEE3EEC46B65FC996771F856C09285F58A7148C77872F6104D6DC9A8897D30896D457015D1FDE3DEA25B91CEFF2EBD6EB0A68F718A0D3A6DDD7CA805699768F27C2D584925E4F84AB9476A39B03E744D09CD6610FF59F44E89A78FA46BA70DDDE0ADC144A4DBCEBF1E0221D416DC23D
310
1D715254A766A8A7AC60C1FF26021ED7783E889CD89C52F24C1ACF0940D5B1F19C047E7A8DE714E0E21ACFD5436EE339AB64DB78E44B91C6730003ECCB897CE1D28548E3798246B0C6731AD0536D3CB3E90740046E0B5FD5161351555C247A084506FA9607AAEBD39C44F1E2B63A5BDCA18E17B755B2E2664A322602C34C3A
310
0393625B51C09BC60D77315EF1E1C8DB80730A9C37D5B8CD0EBF3EA3A6FB4EA2A7C18B1B2746D53A5F7BB70C687C78291FE10E3A386EE3054657F9CB297E9CF703B0E71DFC4DA3397B4068C3CF33A1A81F02C2C920DB8E7ABF712005813923946BAE06DE453454B45CC32AF6311810C751E3F85A979E7874424F9299B34AB2
310
210DC430A45A3473162283FB2F3218C7FE178FBB1CF59692CDAD957C0DECAC3739580882F7E26636C4FC0874E66F42CE013F2EB274A4C323CBB88082C5B980AE4CFD4DC879C0C5B1FFF5E7DDC89E57324556799F2F34BC006EC70CD18A8318C0D9FF0AB6807CDBB19F46B0A4BE07E8B4D9FF8207EA504E3D7E65FA3E4C7226
310
B329B0E8D703AAFEBAA304E869379E693123CD68457958A4FF2F11AE86ECFF4119D078F6E7138AD87FF2370F86D6E1E38789702D76FED2134932CCA824CB8C811832A3160D33426421BD980847AF6F0C11D33DEECB1CFE9B7175D1F926045DE5BD8DBFBDBE94081764D0049324E6DDB40A8607F372225C4D16463974B5B836
310
F393232E193EA2E499B49986C93A780A6DA631A981D7A6CD34012EAECDFCFC5937B23F52B26D33BF83CCDBCC56A5C0ECD07DE7A7A7226D661D8D6033A419D0536D33E07F56B8C4CA7C0D48229F9610695A461A0883CE7B494E8DD95B004DF38E8247AB09FE45AC1A52EDAC32A0861DD8DA85D8A76276989D08579353913989
310
700119397510D9BB4CAB9DF096393711B4263ECE4B176E7EBA700B3C389DB3F0B5335AA6A7234288EA142D784A9083AFB414616018456CF24C3293C4CD2F49D3E5A5F0410CEE7E0F2E6A6FEA11580893E29AEE529C2FC11C4DF48D4AA628982DB44A422820F8563073C8F989CF2240392BED74F7768B819FDEDE6E09E0E29A
310
EE72FA030B3CB273954C91D5916E87CC9BEEFB4FAB1E6B73B10CFB6CBEB73B4423589D2D05F4CC9AAE2E4C768646F0614DBB4BD40606DDEA2539B5A67B13A0D36EBACBCA809A9055A7E9E24B8E0D79912B896C91FE0C1655C17843E129FA335B3277F4E8510807513CB9CC44868E210AF7FE19028691B0917E39482B125CF8
310
D4FF01F0B312DAF64B0000
  0
DICTIONARY
  5
6285
330
56F3
100
AcDbDictionary
280
     1
281
     1
  3
ACAD_ROUNDTRIP_2008_TABLESTYLE_CELLSTYLEMAP
360
6286
  0
CELLSTYLEMAP
  5
6286
102
{ACAD_REACTORS
330
6285
102
}
330
6285
100
AcDbCellStyleMap
 90
        3
300
CELLSTYLE
  1
TABLEFORMAT_BEGIN
 90
        5
170
     1
 91
        0
 92
        0
 62
   257
 93
        1
300
CONTENTFORMAT
  1
CONTENTFORMAT_BEGIN
 90
        0
 91
        0
 92
        4
 93
        0
300

 40
0.0
140
1.0
 94
        5
 62
     0
340
5658
144
6.0
309
CONTENTFORMAT_END
171
     1
301
MARGIN
  1
CELLMARGIN_BEGIN
 40
1.5
 40
1.5
 40
1.5
 40
1.5
 40
4.5
 40
4.5
309
CELLMARGIN_END
 94
        6
 95
        1
302
GRIDFORMAT
  1
GRIDFORMAT_BEGIN
 90
        0
 91
        1
 62
     0
 92
       -2
340
565A
 93
        0
 40
1.125
309
GRIDFORMAT_END
 95
        2
302
GRIDFORMAT
  1
GRIDFORMAT_BEGIN
 90
        0
 91
        1
 62
     0
 92
       -2
340
565A
 93
        0
 40
1.125
309
GRIDFORMAT_END
 95
        4
302
GRIDFORMAT
  1
GRIDFORMAT_BEGIN
 90
        0
 91
        1
 62
     0
 92
       -2
340
565A
 93
        0
 40
1.125
309
GRIDFORMAT_END
 95
        8
302
GRIDFORMAT
  1
GRIDFORMAT_BEGIN
 90
        0
 91
        1
 62
     0
 92
       -2
340
565A
 93
        0
 40
1.125
309
GRIDFORMAT_END
 95
       16
302
GRIDFORMAT
  1
GRIDFORMAT_BEGIN
 90
        0
 91
        1
 62
     0
 92
       -2
340
565A
 93
        0
 40
1.125
309
GRIDFORMAT_END
 95
       32
302
GRIDFORMAT
  1
GRIDFORMAT_BEGIN
 90
        0
 91
        1
 62
     0
 92
       -2
340
565A
 93
        0
 40
1.125
309
GRIDFORMAT_END
309
TABLEFORMAT_END
  1
CELLSTYLE_BEGIN
 90
        1
 91
        1
300
_TITLE
309
CELLSTYLE_END
300
CELLSTYLE
  1
TABLEFORMAT_BEGIN
 90
        5
170
     1
 91
        0
 92
        0
 62
   257
 93
        1
300
CONTENTFORMAT
  1
CONTENTFORMAT_BEGIN
 90
        0
 91
        0
 92
        4
 93
        0
300

 40
0.0
140
1.0
 94
        5
 62
     0
340
5658
144
4.5
309
CONTENTFORMAT_END
171
     1
301
MARGIN
  1
CELLMARGIN_BEGIN
 40
1.5
 40
1.5
 40
1.5
 40
1.5
 40
4.5
 40
4.5
309
CELLMARGIN_END
 94
        6
 95
        1
302
GRIDFORMAT
  1
GRIDFORMAT_BEGIN
 90
        0
 91
        1
 62
     0
 92
       -2
340
565A
 93
        0
 40
1.125
309
GRIDFORMAT_END
 95
        2
302
GRIDFORMAT
  1
GRIDFORMAT_BEGIN
 90
        0
 91
        1
 62
     0
 92
       -2
340
565A
 93
        0
 40
1.125
309
GRIDFORMAT_END
 95
        4
302
GRIDFORMAT
  1
GRIDFORMAT_BEGIN
 90
        0
 91
        1
 62
     0
 92
       -2
340
565A
 93
        0
 40
1.125
309
GRIDFORMAT_END
 95
        8
302
GRIDFORMAT
  1
GRIDFORMAT_BEGIN
 90
        0
 91
        1
 62
     0
 92
       -2
340
565A
 93
        0
 40
1.125
309
GRIDFORMAT_END
 95
       16
302
GRIDFORMAT
  1
GRIDFORMAT_BEGIN
 90
        0
 91
        1
 62
     0
 92
       -2
340
565A
 93
        0
 40
1.125
309
GRIDFORMAT_END
 95
       32
302
GRIDFORMAT
  1
GRIDFORMAT_BEGIN
 90
        0
 91
        1
 62
     0
 92
       -2
340
565A
 93
        0
 40
1.125
309
GRIDFORMAT_END
309
TABLEFORMAT_END
  1
CELLSTYLE_BEGIN
 90
        2
 91
        1
300
_HEADER
309
CELLSTYLE_END
300
CELLSTYLE
  1
TABLEFORMAT_BEGIN
 90
        5
170
     1
 91
        0
 92
        0
 62
   257
 93
        1
300
CONTENTFORMAT
  1
CONTENTFORMAT_BEGIN
 90
        0
 91
        0
 92
        4
 93
        0
300

 40
0.0
140
1.0
 94
        2
 62
     0
340
5658
144
4.5
309
CONTENTFORMAT_END
171
     1
301
MARGIN
  1
CELLMARGIN_BEGIN
 40
1.5
 40
1.5
 40
1.5
 40
1.5
 40
4.5
 40
4.5
309
CELLMARGIN_END
 94
        6
 95
        1
302
GRIDFORMAT
  1
GRIDFORMAT_BEGIN
 90
        0
 91
        1
 62
     0
 92
       -2
340
565A
 93
        0
 40
1.125
309
GRIDFORMAT_END
 95
        2
302
GRIDFORMAT
  1
GRIDFORMAT_BEGIN
 90
        0
 91
        1
 62
     0
 92
       -2
340
565A
 93
        0
 40
1.125
309
GRIDFORMAT_END
 95
        4
302
GRIDFORMAT
  1
GRIDFORMAT_BEGIN
 90
        0
 91
        1
 62
     0
 92
       -2
340
565A
 93
        0
 40
1.125
309
GRIDFORMAT_END
 95
        8
302
GRIDFORMAT
  1
GRIDFORMAT_BEGIN
 90
        0
 91
        1
 62
     0
 92
       -2
340
565A
 93
        0
 40
1.125
309
GRIDFORMAT_END
 95
       16
302
GRIDFORMAT
  1
GRIDFORMAT_BEGIN
 90
        0
 91
        1
 62
     0
 92
       -2
340
565A
 93
        0
 40
1.125
309
GRIDFORMAT_END
 95
       32
302
GRIDFORMAT
  1
GRIDFORMAT_BEGIN
 90
        0
 91
        1
 62
     0
 92
       -2
340
565A
 93
        0
 40
1.125
309
GRIDFORMAT_END
309
TABLEFORMAT_END
  1
CELLSTYLE_BEGIN
 90
        3
 91
        2
300
_DATA
309
CELLSTYLE_END
  0
ENDSEC
  0
EOF
